  0
SECTION
  2
HEADER
  9
$ACADVER
  1
AC1018
  9
$ACADMAINTVER
 70
     0
  9
$DWGCODEPAGE
  3
ANSI_936
  9
$INSBASE
 10
0.0
 20
0.0
 30
0.0
  9
$EXTMIN
 10
1.000000000000000E+20
 20
1.000000000000000E+20
 30
1.000000000000000E+20
  9
$EXTMAX
 10
-1.000000000000000E+20
 20
-1.000000000000000E+20
 30
-1.000000000000000E+20
  9
$LIMMIN
 10
0.0
 20
0.0
  9
$LIMMAX
 10
12.0
 20
9.0
  9
$ORTHOMODE
 70
     0
  9
$REGENMODE
 70
     1
  9
$FILLMODE
 70
     1
  9
$QTEXTMODE
 70
     0
  9
$MIRRTEXT
 70
     1
  9
$LTSCALE
 40
1.0
  9
$ATTMODE
 70
     1
  9
$TEXTSIZE
 40
0.2
  9
$TRACEWID
 40
0.05
  9
$TEXTSTYLE
  7
Standard
  9
$CLAYER
  8
0
  9
$CELTYPE
  6
ByLayer
  9
$CECOLOR
 62
   256
  9
$CELTSCALE
 40
1.0
  9
$DISPSILH
 70
     0
  9
$DIMSCALE
 40
1.0
  9
$DIMASZ
 40
0.18
  9
$DIMEXO
 40
0.0625
  9
$DIMDLI
 40
0.38
  9
$DIMRND
 40
0.0
  9
$DIMDLE
 40
0.0
  9
$DIMEXE
 40
0.18
  9
$DIMTP
 40
0.0
  9
$DIMTM
 40
0.0
  9
$DIMTXT
 40
0.18
  9
$DIMCEN
 40
0.09
  9
$DIMTSZ
 40
0.0
  9
$DIMTOL
 70
     0
  9
$DIMLIM
 70
     0
  9
$DIMTIH
 70
     1
  9
$DIMTOH
 70
     1
  9
$DIMSE1
 70
     0
  9
$DIMSE2
 70
     0
  9
$DIMTAD
 70
     0
  9
$DIMZIN
 70
     0
  9
$DIMBLK
  1

  9
$DIMASO
 70
     1
  9
$DIMSHO
 70
     1
  9
$DIMPOST
  1

  9
$DIMAPOST
  1

  9
$DIMALT
 70
     0
  9
$DIMALTD
 70
     2
  9
$DIMALTF
 40
25.4
  9
$DIMLFAC
 40
1.0
  9
$DIMTOFL
 70
     0
  9
$DIMTVP
 40
0.0
  9
$DIMTIX
 70
     0
  9
$DIMSOXD
 70
     0
  9
$DIMSAH
 70
     0
  9
$DIMBLK1
  1

  9
$DIMBLK2
  1

  9
$DIMSTYLE
  2
STANDARD_ACAD
  9
$DIMCLRD
 70
     0
  9
$DIMCLRE
 70
     0
  9
$DIMCLRT
 70
     0
  9
$DIMTFAC
 40
1.0
  9
$DIMGAP
 40
0.09
  9
$DIMJUST
 70
     0
  9
$DIMSD1
 70
     0
  9
$DIMSD2
 70
     0
  9
$DIMTOLJ
 70
     1
  9
$DIMTZIN
 70
     0
  9
$DIMALTZ
 70
     0
  9
$DIMALTTZ
 70
     0
  9
$DIMUPT
 70
     0
  9
$DIMDEC
 70
     4
  9
$DIMTDEC
 70
     4
  9
$DIMALTU
 70
     2
  9
$DIMALTTD
 70
     2
  9
$DIMTXSTY
  7
Standard
  9
$DIMAUNIT
 70
     0
  9
$DIMADEC
 70
     0
  9
$DIMALTRND
 40
0.0
  9
$DIMAZIN
 70
     0
  9
$DIMDSEP
 70
    46
  9
$DIMATFIT
 70
     3
  9
$DIMFRAC
 70
     0
  9
$DIMLDRBLK
  1

  9
$DIMLUNIT
 70
     2
  9
$DIMLWD
 70
    -2
  9
$DIMLWE
 70
    -2
  9
$DIMTMOVE
 70
     2
  9
$LUNITS
 70
     2
  9
$LUPREC
 70
     3
  9
$SKETCHINC
 40
0.1
  9
$FILLETRAD
 40
0.5
  9
$AUNITS
 70
     0
  9
$AUPREC
 70
     0
  9
$MENU
  1
.
  9
$ELEVATION
 40
0.0
  9
$PELEVATION
 40
0.0
  9
$THICKNESS
 40
0.0
  9
$LIMCHECK
 70
     0
  9
$CHAMFERA
 40
0.0
  9
$CHAMFERB
 40
0.0
  9
$CHAMFERC
 40
0.0
  9
$CHAMFERD
 40
0.0
  9
$SKPOLY
 70
     0
  9
$TDCREATE
 40
2459300.661626123
  9
$TDUCREATE
 40
2459300.328292789
  9
$TDUPDATE
 40
2459300.661650683
  9
$TDUUPDATE
 40
2459300.328317349
  9
$TDINDWG
 40
0.0000000116
  9
$TDUSRTIMER
 40
0.0000000116
  9
$USRTIMER
 70
     1
  9
$ANGBASE
 50
0.0
  9
$ANGDIR
 70
     0
  9
$PDMODE
 70
     0
  9
$PDSIZE
 40
0.0
  9
$PLINEWID
 40
0.0
  9
$SPLFRAME
 70
     0
  9
$SPLINETYPE
 70
     6
  9
$SPLINESEGS
 70
     8
  9
$HANDSEED
  5
31C
  9
$SURFTAB1
 70
     6
  9
$SURFTAB2
 70
     6
  9
$SURFTYPE
 70
     6
  9
$SURFU
 70
     6
  9
$SURFV
 70
     6
  9
$UCSBASE
  2

  9
$UCSNAME
  2

  9
$UCSORG
 10
0.0
 20
0.0
 30
0.0
  9
$UCSXDIR
 10
1.0
 20
0.0
 30
0.0
  9
$UCSYDIR
 10
0.0
 20
1.0
 30
0.0
  9
$UCSORTHOREF
  2

  9
$UCSORTHOVIEW
 70
     0
  9
$UCSORGTOP
 10
0.0
 20
0.0
 30
0.0
  9
$UCSORGBOTTOM
 10
0.0
 20
0.0
 30
0.0
  9
$UCSORGLEFT
 10
0.0
 20
0.0
 30
0.0
  9
$UCSORGRIGHT
 10
0.0
 20
0.0
 30
0.0
  9
$UCSORGFRONT
 10
0.0
 20
0.0
 30
0.0
  9
$UCSORGBACK
 10
0.0
 20
0.0
 30
0.0
  9
$PUCSBASE
  2

  9
$PUCSNAME
  2

  9
$PUCSORG
 10
0.0
 20
0.0
 30
0.0
  9
$PUCSXDIR
 10
1.0
 20
0.0
 30
0.0
  9
$PUCSYDIR
 10
0.0
 20
1.0
 30
0.0
  9
$PUCSORTHOREF
  2

  9
$PUCSORTHOVIEW
 70
     0
  9
$PUCSORGTOP
 10
0.0
 20
0.0
 30
0.0
  9
$PUCSORGBOTTOM
 10
0.0
 20
0.0
 30
0.0
  9
$PUCSORGLEFT
 10
0.0
 20
0.0
 30
0.0
  9
$PUCSORGRIGHT
 10
0.0
 20
0.0
 30
0.0
  9
$PUCSORGFRONT
 10
0.0
 20
0.0
 30
0.0
  9
$PUCSORGBACK
 10
0.0
 20
0.0
 30
0.0
  9
$USERI1
 70
     0
  9
$USERI2
 70
     0
  9
$USERI3
 70
     0
  9
$USERI4
 70
     0
  9
$USERI5
 70
     0
  9
$USERR1
 40
0.0
  9
$USERR2
 40
0.0
  9
$USERR3
 40
0.0
  9
$USERR4
 40
0.0
  9
$USERR5
 40
0.0
  9
$WORLDVIEW
 70
     1
  9
$SHADEDGE
 70
     3
  9
$SHADEDIF
 70
    70
  9
$TILEMODE
 70
     1
  9
$MAXACTVP
 70
    64
  9
$PINSBASE
 10
0.0
 20
0.0
 30
0.0
  9
$PLIMCHECK
 70
     0
  9
$PEXTMIN
 10
1.000000000000000E+20
 20
1.000000000000000E+20
 30
1.000000000000000E+20
  9
$PEXTMAX
 10
-1.000000000000000E+20
 20
-1.000000000000000E+20
 30
-1.000000000000000E+20
  9
$PLIMMIN
 10
0.0
 20
0.0
  9
$PLIMMAX
 10
12.0
 20
9.0
  9
$UNITMODE
 70
     0
  9
$VISRETAIN
 70
     1
  9
$PLINEGEN
 70
     0
  9
$PSLTSCALE
 70
     1
  9
$TREEDEPTH
 70
  3020
  9
$CMLSTYLE
  2
Standard
  9
$CMLJUST
 70
     0
  9
$CMLSCALE
 40
1.0
  9
$PROXYGRAPHICS
 70
     1
  9
$MEASUREMENT
 70
     0
  9
$CELWEIGHT
370
    -1
  9
$ENDCAPS
280
     0
  9
$JOINSTYLE
280
     0
  9
$LWDISPLAY
290
     0
  9
$INSUNITS
 70
     4
  9
$HYPERLINKBASE
  1

  9
$STYLESHEET
  1

  9
$XEDIT
290
     1
  9
$CEPSNTYPE
380
     0
  9
$PSTYLEMODE
290
     1
  9
$FINGERPRINTGUID
  2
{20496bbc-3718-4561-946d-5a9febc98b9a}
  9
$VERSIONGUID
  2
{FAEB1C32-E019-11D5-929B-00C0DF256EC4}
  9
$EXTNAMES
290
     1
  9
$PSVPSCALE
 40
0.0
  9
$OLESTARTUP
290
     0
  9
$SORTENTS
280
   127
  9
$INDEXCTL
280
     0
  9
$HIDETEXT
280
     1
  9
$XCLIPFRAME
290
     0
  9
$HALOGAP
280
     0
  9
$OBSCOLOR
 70
   257
  9
$OBSLTYPE
280
     0
  9
$INTERSECTIONDISPLAY
280
     0
  9
$INTERSECTIONCOLOR
 70
   257
  9
$DIMASSOC
280
     2
  9
$PROJECTNAME
  1

  0
ENDSEC
  0
SECTION
  2
CLASSES
  0
CLASS
  1
ACDBDICTIONARYWDFLT
  2
AcDbDictionaryWithDefault
  3
ObjectDBX Classes
 90
        0
 91
        3
280
     0
281
     0
  0
CLASS
  1
VISUALSTYLE
  2
AcDbVisualStyle
  3
ObjectDBX Classes
 90
     4095
 91
        3
280
     0
281
     0
  0
CLASS
  1
MATERIAL
  2
AcDbMaterial
  3
ObjectDBX Classes
 90
     1153
 91
        3
280
     0
281
     0
  0
CLASS
  1
SCALE
  2
AcDbScale
  3
ObjectDBX Classes
 90
     1153
 91
        3
280
     0
281
     0
  0
CLASS
  1
TABLESTYLE
  2
AcDbTableStyle
  3
ObjectDBX Classes
 90
     4095
 91
        3
280
     0
281
     0
  0
CLASS
  1
MLEADERSTYLE
  2
AcDbMLeaderStyle
  3
ACDB_MLEADERSTYLE_CLASS
 90
     4095
 91
        3
280
     0
281
     0
  0
CLASS
  1
SUN
  2
AcDbSun
  3
SCENEOE
 90
     1153
 91
        3
280
     0
281
     0
  0
CLASS
  1
DICTIONARYVAR
  2
AcDbDictionaryVar
  3
ObjectDBX Classes
 90
        0
 91
        3
280
     0
281
     0
  0
CLASS
  1
CELLSTYLEMAP
  2
AcDbCellStyleMap
  3
ObjectDBX Classes
 90
     1152
 91
        3
280
     0
281
     0
  0
ENDSEC
  0
SECTION
  2
TABLES
  0
TABLE
  2
VPORT
  5
8
102
{ACAD_XDICTIONARY
360
2D5
102
}
330
0
100
AcDbSymbolTable
 70
     1
  0
VPORT
  5
29
330
8
100
AcDbSymbolTableRecord
100
AcDbViewportTableRecord
  2
*Active
 70
     0
 10
0.0
 20
0.0
 11
1.0
 21
1.0
 12
10.42990654205607
 22
4.5
 13
0.0
 23
0.0
 14
0.5
 24
0.5
 15
0.5
 25
0.5
 16
0.0
 26
0.0
 36
1.0
 17
0.0
 27
0.0
 37
0.0
 40
9.0
 41
1.972972972850329
 42
50.0
 43
0.0
 44
0.0
 50
0.0
 51
0.0
 71
     0
 72
   100
 73
     1
 74
     3
 75
     0
 76
     0
 77
     0
 78
     0
281
     0
 65
     1
110
0.0
120
0.0
130
0.0
111
1.0
121
0.0
131
0.0
112
0.0
122
1.0
132
0.0
 79
     0
146
0.0
  0
ENDTAB
  0
TABLE
  2
LTYPE
  5
5
330
0
100
AcDbSymbolTable
 70
     1
  0
LTYPE
  5
14
330
5
100
AcDbSymbolTableRecord
100
AcDbLinetypeTableRecord
  2
ByBlock
 70
     0
  3

 72
    65
 73
     0
 40
0.0
  0
LTYPE
  5
15
330
5
100
AcDbSymbolTableRecord
100
AcDbLinetypeTableRecord
  2
ByLayer
 70
     0
  3

 72
    65
 73
     0
 40
0.0
  0
LTYPE
  5
16
330
5
100
AcDbSymbolTableRecord
100
AcDbLinetypeTableRecord
  2
Continuous
 70
     0
  3
Solid line
 72
    65
 73
     0
 40
0.0
  0
ENDTAB
  0
TABLE
  2
LAYER
  5
2
330
0
100
AcDbSymbolTable
 70
     4
  0
LAYER
  5
10
330
2
100
AcDbSymbolTableRecord
100
AcDbLayerTableRecord
  2
0
 70
     0
 62
     7
  6
Continuous
370
    -3
390
F
  0
LAYER
  5
6E
330
2
100
AcDbSymbolTableRecord
100
AcDbLayerTableRecord
  2
Make2D$可见线$曲线
 70
     0
 62
    18
420
        0
  6
Continuous
370
    -3
390
F
  0
LAYER
  5
8F
330
2
100
AcDbSymbolTableRecord
100
AcDbLayerTableRecord
  2
分件
 70
     0
 62
    18
420
        0
  6
Continuous
370
    -3
390
F
  0
LAYER
  5
1A3
330
2
100
AcDbSymbolTableRecord
100
AcDbLayerTableRecord
  2
刻线
 70
     0
 62
     1
420
 16711680
  6
Continuous
370
    -3
390
F
  0
ENDTAB
  0
TABLE
  2
STYLE
  5
3
330
0
100
AcDbSymbolTable
 70
     1
  0
STYLE
  5
11
330
3
100
AcDbSymbolTableRecord
100
AcDbTextStyleTableRecord
  2
Standard
 70
     0
 40
0.0
 41
1.0
 50
0.0
 71
     0
 42
0.2
  3
txt
  4

  0
ENDTAB
  0
TABLE
  2
VIEW
  5
6
330
0
100
AcDbSymbolTable
 70
     0
  0
ENDTAB
  0
TABLE
  2
UCS
  5
7
330
0
100
AcDbSymbolTable
 70
     0
  0
ENDTAB
  0
TABLE
  2
APPID
  5
9
330
0
100
AcDbSymbolTable
 70
     2
  0
APPID
  5
12
330
9
100
AcDbSymbolTableRecord
100
AcDbRegAppTableRecord
  2
ACAD
 70
     0
  0
APPID
  5
314
330
9
100
AcDbSymbolTableRecord
100
AcDbRegAppTableRecord
  2
ACAD_MLEADERVER
 70
     0
  0
ENDTAB
  0
TABLE
  2
DIMSTYLE
  5
A
330
0
100
AcDbSymbolTable
 70
     1
100
AcDbDimStyleTable
  0
DIMSTYLE
105
27
330
A
100
AcDbSymbolTableRecord
100
AcDbDimStyleTableRecord
  2
STANDARD_ACAD
 70
     0
178
     0
340
11
  0
ENDTAB
  0
TABLE
  2
BLOCK_RECORD
  5
1
330
0
100
AcDbSymbolTable
 70
     1
  0
BLOCK_RECORD
  5
1F
330
1
100
AcDbSymbolTableRecord
100
AcDbBlockTableRecord
  2
*Model_Space
340
22
  0
BLOCK_RECORD
  5
1B
330
1
100
AcDbSymbolTableRecord
100
AcDbBlockTableRecord
  2
*Paper_Space
340
1E
  0
BLOCK_RECORD
  5
23
330
1
100
AcDbSymbolTableRecord
100
AcDbBlockTableRecord
  2
*Paper_Space0
340
26
  0
ENDTAB
  0
ENDSEC
  0
SECTION
  2
BLOCKS
  0
BLOCK
  5
20
330
1F
100
AcDbEntity
  8
0
100
AcDbBlockBegin
  2
*Model_Space
 70
     0
 10
0.0
 20
0.0
 30
0.0
  3
*Model_Space
  1

  0
ENDBLK
  5
21
330
1F
100
AcDbEntity
  8
0
100
AcDbBlockEnd
  0
BLOCK
  5
1C
330
1B
100
AcDbEntity
 67
     1
  8
0
100
AcDbBlockBegin
  2
*Paper_Space
 70
     0
 10
0.0
 20
0.0
 30
0.0
  3
*Paper_Space
  1

  0
ENDBLK
  5
1D
330
1B
100
AcDbEntity
 67
     1
  8
0
100
AcDbBlockEnd
  0
BLOCK
  5
24
330
23
100
AcDbEntity
  8
0
100
AcDbBlockBegin
  2
*Paper_Space0
 70
     0
 10
0.0
 20
0.0
 30
0.0
  3
*Paper_Space0
  1

  0
ENDBLK
  5
25
330
23
100
AcDbEntity
  8
0
100
AcDbBlockEnd
  0
ENDSEC
  0
SECTION
  2
ENTITIES
  0
LINE
  5
6F
330
1F
100
AcDbEntity
  8
Make2D$可见线$曲线
 62
    18
420
        0
370
    -3
100
AcDbLine
 10
257.0360369633422
 20
-338.4599763154642
 30
0.0
 11
257.0360369633422
 21
-328.9099763154642
 31
0.0
  0
LINE
  5
70
330
1F
100
AcDbEntity
  8
Make2D$可见线$曲线
 62
    18
420
        0
370
    -3
100
AcDbLine
 10
257.0360369633422
 20
-348.5099763154642
 30
0.0
 11
257.0360369633422
 21
-338.9599763154641
 31
0.0
  0
LINE
  5
71
330
1F
100
AcDbEntity
  8
Make2D$可见线$曲线
 62
    18
420
        0
370
    -3
100
AcDbLine
 10
257.0360369633422
 20
-280.8599763154642
 30
0.0
 11
257.0360369633422
 21
-271.3099763154642
 31
0.0
  0
LINE
  5
72
330
1F
100
AcDbEntity
  8
Make2D$可见线$曲线
 62
    18
420
        0
370
    -3
100
AcDbLine
 10
257.0360369633422
 20
-290.9099763154642
 30
0.0
 11
257.0360369633422
 21
-281.3599763154642
 31
0.0
  0
LINE
  5
73
330
1F
100
AcDbEntity
  8
Make2D$可见线$曲线
 62
    18
420
        0
370
    -3
100
AcDbLine
 10
258.0360369633422
 20
-291.9099763154642
 30
0.0
 11
257.0360369633422
 21
-290.9099763154642
 31
0.0
  0
LINE
  5
74
330
1F
100
AcDbEntity
  8
Make2D$可见线$曲线
 62
    18
420
        0
370
    -3
100
AcDbLine
 10
258.0360369633422
 20
-327.9099763154642
 30
0.0
 11
258.0360369633422
 21
-291.9099763154642
 31
0.0
  0
LINE
  5
75
330
1F
100
AcDbEntity
  8
Make2D$可见线$曲线
 62
    18
420
        0
370
    -3
100
AcDbLine
 10
257.0360369633422
 20
-328.9099763154642
 30
0.0
 11
258.0360369633422
 21
-327.9099763154642
 31
0.0
  0
LINE
  5
76
330
1F
100
AcDbEntity
  8
Make2D$可见线$曲线
 62
    18
420
        0
370
    -3
100
AcDbLine
 10
306.5793373355705
 20
-318.6849763154643
 30
0.0
 11
279.0360369633415
 21
-318.6849763154644
 31
0.0
  0
ARC
  5
77
330
1F
100
AcDbEntity
  8
Make2D$可见线$曲线
 62
    18
420
        0
370
    -3
100
AcDbCircle
 10
279.0360369633423
 20
-322.6849763154645
 30
0.0
 40
4.000000000000114
100
AcDbArc
 50
90.0000000000114
 51
179.9999999999984
  0
LINE
  5
78
330
1F
100
AcDbEntity
  8
Make2D$可见线$曲线
 62
    18
420
        0
370
    -3
100
AcDbLine
 10
275.0360369633422
 20
-322.6849763154644
 30
0.0
 11
275.036036963342
 21
-326.6849763154642
 31
0.0
  0
ARC
  5
79
330
1F
100
AcDbEntity
  8
Make2D$可见线$曲线
 62
    18
420
        0
370
    -3
100
AcDbCircle
 10
279.0360369633421
 20
-326.6849763154642
 30
0.0
 40
4.000000000000114
100
AcDbArc
 50
180.0
 51
269.9999999999919
  0
LINE
  5
7A
330
1F
100
AcDbEntity
  8
Make2D$可见线$曲线
 62
    18
420
        0
370
    -3
100
AcDbLine
 10
279.0360369633415
 20
-330.6849763154643
 30
0.0
 11
306.5259935462257
 21
-330.6849763154643
 31
0.0
  0
LINE
  5
7B
330
1F
100
AcDbEntity
  8
Make2D$可见线$曲线
 62
    18
420
        0
370
    -3
100
AcDbLine
 10
317.7910496463019
 20
-350.5099763154642
 30
0.0
 11
259.0360369633422
 21
-350.5099763154642
 31
0.0
  0
LINE
  5
7C
330
1F
100
AcDbEntity
  8
Make2D$可见线$曲线
 62
    18
420
        0
370
    -3
100
AcDbLine
 10
260.0360369633422
 20
-289.9099763154642
 30
0.0
 11
260.0360369633422
 21
-329.9099763154642
 31
0.0
  0
LINE
  5
7D
330
1F
100
AcDbEntity
  8
Make2D$可见线$曲线
 62
    18
420
        0
370
    -3
100
AcDbLine
 10
262.8360369633422
 20
-289.9099763154642
 30
0.0
 11
260.0360369633422
 21
-289.9099763154642
 31
0.0
  0
LINE
  5
7E
330
1F
100
AcDbEntity
  8
Make2D$可见线$曲线
 62
    18
420
        0
370
    -3
100
AcDbLine
 10
262.8360369633422
 20
-329.9099763154642
 30
0.0
 11
262.8360369633422
 21
-289.9099763154642
 31
0.0
  0
LINE
  5
7F
330
1F
100
AcDbEntity
  8
Make2D$可见线$曲线
 62
    18
420
        0
370
    -3
100
AcDbLine
 10
260.0360369633422
 20
-329.9099763154642
 30
0.0
 11
262.8360369633422
 21
-329.9099763154642
 31
0.0
  0
LINE
  5
80
330
1F
100
AcDbEntity
  8
Make2D$可见线$曲线
 62
    18
420
        0
370
    -3
100
AcDbLine
 10
257.0360369633422
 20
-271.3099763154642
 30
0.0
 11
259.0360369633422
 21
-269.3099763154642
 31
0.0
  0
LINE
  5
81
330
1F
100
AcDbEntity
  8
Make2D$可见线$曲线
 62
    18
420
        0
370
    -3
100
AcDbLine
 10
259.0360369633422
 20
-269.3099763154642
 30
0.0
 11
311.6441995470964
 21
-269.3099763154642
 31
0.0
  0
LINE
  5
82
330
1F
100
AcDbEntity
  8
Make2D$可见线$曲线
 62
    18
420
        0
370
    -3
100
AcDbLine
 10
259.0360369633422
 20
-350.5099763154642
 30
0.0
 11
257.0360369633422
 21
-348.5099763154642
 31
0.0
  0
LINE
  5
83
330
1F
100
AcDbEntity
  8
Make2D$可见线$曲线
 62
    18
420
        0
370
    -3
100
AcDbLine
 10
271.0510369633421
 20
-272.3099763154642
 30
0.0
 11
271.0510369633421
 21
-275.1099763154641
 31
0.0
  0
LINE
  5
84
330
1F
100
AcDbEntity
  8
Make2D$可见线$曲线
 62
    18
420
        0
370
    -3
100
AcDbLine
 10
286.0510369633421
 20
-272.3099763154642
 30
0.0
 11
271.0510369633421
 21
-272.3099763154642
 31
0.0
  0
LINE
  5
85
330
1F
100
AcDbEntity
  8
Make2D$可见线$曲线
 62
    18
420
        0
370
    -3
100
AcDbLine
 10
286.0510369633421
 20
-275.1099763154641
 30
0.0
 11
286.0510369633421
 21
-272.3099763154642
 31
0.0
  0
LINE
  5
86
330
1F
100
AcDbEntity
  8
Make2D$可见线$曲线
 62
    18
420
        0
370
    -3
100
AcDbLine
 10
271.0510369633421
 20
-275.1099763154641
 30
0.0
 11
286.0510369633421
 21
-275.1099763154641
 31
0.0
  0
LINE
  5
87
330
1F
100
AcDbEntity
  8
Make2D$可见线$曲线
 62
    18
420
        0
370
    -3
100
AcDbLine
 10
263.9360369633423
 20
-347.5099763154642
 30
0.0
 11
278.9360369633423
 21
-347.5099763154642
 31
0.0
  0
LINE
  5
88
330
1F
100
AcDbEntity
  8
Make2D$可见线$曲线
 62
    18
420
        0
370
    -3
100
AcDbLine
 10
278.9360369633423
 20
-347.5099763154642
 30
0.0
 11
278.9360369633423
 21
-344.7099763154641
 31
0.0
  0
LINE
  5
89
330
1F
100
AcDbEntity
  8
Make2D$可见线$曲线
 62
    18
420
        0
370
    -3
100
AcDbLine
 10
278.9360369633423
 20
-344.7099763154641
 30
0.0
 11
263.9360369633423
 21
-344.7099763154641
 31
0.0
  0
LINE
  5
8A
330
1F
100
AcDbEntity
  8
Make2D$可见线$曲线
 62
    18
420
        0
370
    -3
100
AcDbLine
 10
263.9360369633423
 20
-344.7099763154641
 30
0.0
 11
263.9360369633423
 21
-347.5099763154642
 31
0.0
  0
CIRCLE
  5
8B
330
1F
100
AcDbEntity
  8
Make2D$可见线$曲线
 62
    18
420
        0
370
    -3
100
AcDbCircle
 10
-400.0693674119959
 20
-234.461870264213
 30
0.0
 40
1.5
210
0.0
220
0.0
230
-1.0
  0
CIRCLE
  5
8C
330
1F
100
AcDbEntity
  8
Make2D$可见线$曲线
 62
    18
420
        0
370
    -3
100
AcDbCircle
 10
-350.0693674119959
 20
-234.4618702642132
 30
0.0
 40
1.5
210
0.0
220
0.0
230
-1.0
  0
CIRCLE
  5
8D
330
1F
100
AcDbEntity
  8
Make2D$可见线$曲线
 62
    18
420
        0
370
    -3
100
AcDbCircle
 10
-350.0693674119957
 20
-199.4618702642128
 30
0.0
 40
1.5
210
0.0
220
0.0
230
-1.0
  0
CIRCLE
  5
8E
330
1F
100
AcDbEntity
  8
Make2D$可见线$曲线
 62
    18
420
        0
370
    -3
100
AcDbCircle
 10
-400.0693674119957
 20
-199.4618702642125
 30
0.0
 40
1.5
210
0.0
220
0.0
230
-1.0
  0
LINE
  5
90
330
1F
100
AcDbEntity
  8
分件
100
AcDbLine
 10
255.0809106761292
 20
-388.1075448068184
 30
0.0
 11
535.0614171632778
 21
-388.1075448068184
 31
0.0
  0
LINE
  5
91
330
1F
100
AcDbEntity
  8
分件
100
AcDbLine
 10
255.0809106761292
 20
-184.5868695012736
 30
0.0
 11
255.0809106761292
 21
-388.1075448068184
 31
0.0
  0
LINE
  5
92
330
1F
100
AcDbEntity
  8
分件
100
AcDbLine
 10
535.0614171632778
 20
-184.5868695012736
 30
0.0
 11
255.0809106761292
 21
-184.5868695012736
 31
0.0
  0
LINE
  5
93
330
1F
100
AcDbEntity
  8
分件
100
AcDbLine
 10
535.0614171632778
 20
-388.1075448068184
 30
0.0
 11
535.0614171632778
 21
-184.5868695012736
 31
0.0
  0
LINE
  5
94
330
1F
100
AcDbEntity
  8
分件
100
AcDbLine
 10
507.0
 20
-205.6868702642129
 30
0.0
 11
507.0
 21
-223.9368702642129
 31
0.0
  0
LINE
  5
95
330
1F
100
AcDbEntity
  8
分件
100
AcDbLine
 10
505.0000000000001
 20
-203.6868702642129
 30
0.0
 11
507.0
 21
-205.6868702642129
 31
0.0
  0
LINE
  5
96
330
1F
100
AcDbEntity
  8
分件
100
AcDbLine
 10
465.25
 20
-203.6868702642129
 30
0.0
 11
505.0000000000001
 21
-203.6868702642129
 31
0.0
  0
LINE
  5
97
330
1F
100
AcDbEntity
  8
分件
100
AcDbLine
 10
425.0000000000001
 20
-203.6868702642129
 30
0.0
 11
464.7500000000001
 21
-203.6868702642129
 31
0.0
  0
LINE
  5
98
330
1F
100
AcDbEntity
  8
分件
100
AcDbLine
 10
423.0
 20
-205.6868702642129
 30
0.0
 11
425.0000000000001
 21
-203.6868702642129
 31
0.0
  0
LINE
  5
99
330
1F
100
AcDbEntity
  8
分件
100
AcDbLine
 10
423.0
 20
-223.9368702642129
 30
0.0
 11
423.0
 21
-205.6868702642129
 31
0.0
  0
LINE
  5
9A
330
1F
100
AcDbEntity
  8
分件
100
AcDbLine
 10
505.0000000000001
 20
-244.6868702642129
 30
0.0
 11
465.2500000000001
 21
-244.6868702642129
 31
0.0
  0
LINE
  5
9B
330
1F
100
AcDbEntity
  8
分件
100
AcDbLine
 10
507.0
 20
-242.6868702642129
 30
0.0
 11
505.0000000000001
 21
-244.6868702642129
 31
0.0
  0
LINE
  5
9C
330
1F
100
AcDbEntity
  8
分件
100
AcDbLine
 10
507.0
 20
-224.4368702642129
 30
0.0
 11
507.0
 21
-242.6868702642129
 31
0.0
  0
LINE
  5
9D
330
1F
100
AcDbEntity
  8
分件
100
AcDbLine
 10
423.0
 20
-242.686870264213
 30
0.0
 11
423.0
 21
-224.4368702642129
 31
0.0
  0
LINE
  5
9E
330
1F
100
AcDbEntity
  8
分件
100
AcDbLine
 10
425.0
 20
-244.6868702642129
 30
0.0
 11
423.0
 21
-242.686870264213
 31
0.0
  0
LINE
  5
9F
330
1F
100
AcDbEntity
  8
分件
100
AcDbLine
 10
464.7500000000001
 20
-244.6868702642129
 30
0.0
 11
425.0
 21
-244.6868702642129
 31
0.0
  0
LINE
  5
A0
330
1F
100
AcDbEntity
  8
Make2D$可见线$曲线
 62
    18
420
        0
370
    -3
100
AcDbLine
 10
437.2260278722712
 20
-206.3900236845358
 30
0.0
 11
431.5760278722712
 21
-206.3900236845358
 31
0.0
  0
LINE
  5
A1
330
1F
100
AcDbEntity
  8
Make2D$可见线$曲线
 62
    18
420
        0
370
    -3
100
AcDbLine
 10
443.3760278722713
 20
-206.3900236845358
 30
0.0
 11
437.7260278722713
 21
-206.3900236845358
 31
0.0
  0
LINE
  5
A2
330
1F
100
AcDbEntity
  8
Make2D$可见线$曲线
 62
    18
420
        0
370
    -3
100
AcDbLine
 10
493.0260278722712
 20
-206.3900236845358
 30
0.0
 11
487.3760278722713
 21
-206.3900236845358
 31
0.0
  0
LINE
  5
A3
330
1F
100
AcDbEntity
  8
Make2D$可见线$曲线
 62
    18
420
        0
370
    -3
100
AcDbLine
 10
499.1760278722712
 20
-206.3900236845358
 30
0.0
 11
493.5260278722712
 21
-206.3900236845358
 31
0.0
  0
LINE
  5
A4
330
1F
100
AcDbEntity
  8
Make2D$可见线$曲线
 62
    18
420
        0
370
    -3
100
AcDbLine
 10
497.6300319707887
 20
-241.2567691835129
 30
0.0
 11
503.6641027253252
 21
-242.2095171973871
 31
0.0
  0
LINE
  5
A5
330
1F
100
AcDbEntity
  8
Make2D$可见线$曲线
 62
    18
420
        0
370
    -3
100
AcDbLine
 10
491.1020797335874
 20
-240.2260398829022
 30
0.0
 11
497.1361504881239
 21
-241.1787878967764
 31
0.0
  0
LINE
  5
A6
330
1F
100
AcDbEntity
  8
Make2D$可见线$曲线
 62
    18
420
        0
370
    -3
100
AcDbLine
 10
433.3039801094724
 20
-231.1000241527788
 30
0.0
 11
439.6499760109549
 21
-232.1020235056445
 31
0.0
  0
LINE
  5
A7
330
1F
100
AcDbEntity
  8
Make2D$可见线$曲线
 62
    18
420
        0
370
    -3
100
AcDbLine
 10
426.4641027253252
 20
-230.0200435131766
 30
0.0
 11
432.8100986268078
 21
-231.0220428660423
 31
0.0
  0
LINE
  5
A8
330
1F
100
AcDbEntity
  8
Make2D$可见线$曲线
 62
    18
420
        0
370
    -3
100
AcDbLine
 10
323.8089713715847
 20
-345.4886696593689
 30
0.0
 11
319.4551502349773
 21
-349.6193767079146
 31
0.0
  0
LINE
  5
A9
330
1F
100
AcDbEntity
  8
Make2D$可见线$曲线
 62
    18
420
        0
370
    -3
100
AcDbLine
 10
328.5255177519534
 20
-341.0138254324506
 30
0.0
 11
324.171696615346
 21
-345.1445324809964
 31
0.0
  0
LINE
  5
AA
330
1F
100
AcDbEntity
  8
Make2D$可见线$曲线
 62
    18
420
        0
370
    -3
100
AcDbLine
 10
321.2654163486537
 20
-284.067410586348
 30
0.0
 11
328.8614171632778
 21
-297.3099763154642
 31
0.0
  0
LINE
  5
AB
330
1F
100
AcDbEntity
  8
Make2D$可见线$曲线
 62
    18
420
        0
370
    -3
100
AcDbLine
 10
313.4206348334083
 20
-270.3911304777166
 30
0.0
 11
321.0166356480324
 21
-283.6336962068327
 31
0.0
  0
LINE
  5
AC
330
1F
100
AcDbEntity
  8
Make2D$可见线$曲线
 62
    18
420
        0
370
    -3
100
AcDbLine
 10
321.5304240176215
 20
-255.7368695012736
 30
0.0
 11
321.5304240176215
 21
-246.1868695012736
 31
0.0
  0
LINE
  5
AD
330
1F
100
AcDbEntity
  8
Make2D$可见线$曲线
 62
    18
420
        0
370
    -3
100
AcDbLine
 10
321.5304240176215
 20
-265.7868695012736
 30
0.0
 11
321.5304240176215
 21
-256.2368695012736
 31
0.0
  0
LINE
  5
AE
330
1F
100
AcDbEntity
  8
Make2D$可见线$曲线
 62
    18
420
        0
370
    -3
100
AcDbLine
 10
307.4531770686301
 20
-267.7868695012736
 30
0.0
 11
319.5304240176215
 21
-267.7868695012736
 31
0.0
  0
LINE
  5
AF
330
1F
100
AcDbEntity
  8
Make2D$可见线$曲线
 62
    18
420
        0
370
    -3
100
AcDbLine
 10
294.8759301196387
 20
-267.7868695012736
 30
0.0
 11
306.9531770686301
 21
-267.7868695012736
 31
0.0
  0
LINE
  5
B0
330
1F
100
AcDbEntity
  8
Make2D$可见线$曲线
 62
    18
420
        0
370
    -3
100
AcDbLine
 10
292.0750486421366
 20
-267.0646945204043
 30
0.0
 11
292.9004041889807
 21
-266.0987946482196
 31
0.0
  0
LINE
  5
B1
330
1F
100
AcDbEntity
  8
Make2D$可见线$曲线
 62
    18
420
        0
370
    -3
100
AcDbLine
 10
290.9248782583225
 20
-268.4107197951656
 30
0.0
 11
291.7502338051665
 21
-267.444819922981
 31
0.0
  0
LINE
  5
B2
330
1F
100
AcDbEntity
  8
Make2D$可见线$曲线
 62
    18
420
        0
370
    -3
100
AcDbLine
 10
257.0809106761292
 20
-255.9607197951656
 30
0.0
 11
257.0809106761292
 21
-261.6107197951656
 31
0.0
  0
LINE
  5
B3
330
1F
100
AcDbEntity
  8
Make2D$可见线$曲线
 62
    18
420
        0
370
    -3
100
AcDbLine
 10
257.0809106761292
 20
-249.8107197951656
 30
0.0
 11
257.0809106761292
 21
-255.4607197951656
 31
0.0
  0
LINE
  5
B4
330
1F
100
AcDbEntity
  8
Make2D$可见线$曲线
 62
    18
420
        0
370
    -3
100
AcDbLine
 10
321.5304240176215
 20
-198.1368695012736
 30
0.0
 11
321.5304240176215
 21
-188.5868695012736
 31
0.0
  0
LINE
  5
B5
330
1F
100
AcDbEntity
  8
Make2D$可见线$曲线
 62
    18
420
        0
370
    -3
100
AcDbLine
 10
321.5304240176215
 20
-208.1868695012736
 30
0.0
 11
321.5304240176215
 21
-198.6368695012736
 31
0.0
  0
LINE
  5
B6
330
1F
100
AcDbEntity
  8
Make2D$可见线$曲线
 62
    18
420
        0
370
    -3
100
AcDbLine
 10
300.8584402265249
 20
-186.5868695012736
 30
0.0
 11
282.6864564354282
 21
-186.5868695012736
 31
0.0
  0
LINE
  5
B7
330
1F
100
AcDbEntity
  8
Make2D$可见线$曲线
 62
    18
420
        0
370
    -3
100
AcDbLine
 10
319.5304240176215
 20
-186.5868695012736
 30
0.0
 11
301.3584402265249
 21
-186.5868695012736
 31
0.0
  0
LINE
  5
B8
330
1F
100
AcDbEntity
  8
Make2D$可见线$曲线
 62
    18
420
        0
370
    -3
100
AcDbLine
 10
274.1081576251204
 20
-187.2107197951656
 30
0.0
 11
269.980910676129
 21
-187.2107197951656
 31
0.0
  0
LINE
  5
B9
330
1F
100
AcDbEntity
  8
Make2D$可见线$曲线
 62
    18
420
        0
370
    -3
100
AcDbLine
 10
278.7354045741117
 20
-187.2107197951656
 30
0.0
 11
274.6081576251204
 21
-187.2107197951656
 31
0.0
  0
LINE
  5
BA
330
1F
100
AcDbEntity
  8
Make2D$可见线$曲线
 62
    18
420
        0
370
    -3
100
AcDbLine
 10
257.0809106761292
 20
-200.1607197951656
 30
0.0
 11
257.0809106761292
 21
-205.8107197951656
 31
0.0
  0
LINE
  5
BB
330
1F
100
AcDbEntity
  8
Make2D$可见线$曲线
 62
    18
420
        0
370
    -3
100
AcDbLine
 10
257.0809106761292
 20
-194.0107197951656
 30
0.0
 11
257.0809106761292
 21
-199.6607197951656
 31
0.0
  0
LINE
  5
BC
330
1F
100
AcDbEntity
  8
Make2D$可见线$曲线
 62
    18
420
        0
370
    -3
100
AcDbLine
 10
502.6760278722712
 20
-230.4050236845356
 30
0.0
 11
500.4760278722712
 21
-230.4050236845356
 31
0.0
  0
LINE
  5
BD
330
1F
100
AcDbEntity
  8
Make2D$可见线$曲线
 62
    18
420
        0
370
    -3
100
AcDbLine
 10
500.4760278722712
 20
-230.4050236845356
 30
0.0
 11
500.1760278722712
 21
-207.3900236845358
 31
0.0
  0
LINE
  5
BE
330
1F
100
AcDbEntity
  8
Make2D$可见线$曲线
 62
    18
420
        0
370
    -3
100
AcDbLine
 10
500.1760278722712
 20
-207.3900236845358
 30
0.0
 11
499.1760278722712
 21
-206.3900236845358
 31
0.0
  0
LINE
  5
BF
330
1F
100
AcDbEntity
  8
Make2D$可见线$曲线
 62
    18
420
        0
370
    -3
100
AcDbLine
 10
485.3760278722713
 20
-212.1900236845357
 30
0.0
 11
473.1760278722712
 21
-212.1900236845357
 31
0.0
  0
LINE
  5
C0
330
1F
100
AcDbEntity
  8
Make2D$可见线$曲线
 62
    18
420
        0
370
    -3
100
AcDbLine
 10
473.1760278722712
 20
-212.1900236845357
 30
0.0
 11
472.8760278722713
 21
-209.3900236845358
 31
0.0
  0
LINE
  5
C1
330
1F
100
AcDbEntity
  8
Make2D$可见线$曲线
 62
    18
420
        0
370
    -3
100
AcDbLine
 10
472.8760278722713
 20
-209.3900236845358
 30
0.0
 11
457.8760278722713
 21
-209.3900236845358
 31
0.0
  0
LINE
  5
C2
330
1F
100
AcDbEntity
  8
Make2D$可见线$曲线
 62
    18
420
        0
370
    -3
100
AcDbLine
 10
457.8760278722713
 20
-209.3900236845358
 30
0.0
 11
457.5760278722712
 21
-212.1900236845357
 31
0.0
  0
LINE
  5
C3
330
1F
100
AcDbEntity
  8
Make2D$可见线$曲线
 62
    18
420
        0
370
    -3
100
AcDbLine
 10
457.5760278722712
 20
-212.1900236845357
 30
0.0
 11
445.3760278722713
 21
-212.1900236845357
 31
0.0
  0
LINE
  5
C4
330
1F
100
AcDbEntity
  8
Make2D$可见线$曲线
 62
    18
420
        0
370
    -3
100
AcDbLine
 10
445.3760278722713
 20
-212.1900236845357
 30
0.0
 11
445.3760278722713
 21
-208.3900236845358
 31
0.0
  0
LINE
  5
C5
330
1F
100
AcDbEntity
  8
Make2D$可见线$曲线
 62
    18
420
        0
370
    -3
100
AcDbLine
 10
431.5760278722712
 20
-206.3900236845358
 30
0.0
 11
430.5760278722712
 21
-207.3900236845358
 31
0.0
  0
LINE
  5
C6
330
1F
100
AcDbEntity
  8
Make2D$可见线$曲线
 62
    18
420
        0
370
    -3
100
AcDbLine
 10
430.5760278722712
 20
-207.3900236845358
 30
0.0
 11
430.2760278722711
 21
-223.2900236845359
 31
0.0
  0
LINE
  5
C7
330
1F
100
AcDbEntity
  8
Make2D$可见线$曲线
 62
    18
420
        0
370
    -3
100
AcDbLine
 10
430.2760278722711
 20
-223.2900236845359
 30
0.0
 11
428.0760278722712
 21
-223.2900236845359
 31
0.0
  0
LINE
  5
C8
330
1F
100
AcDbEntity
  8
Make2D$可见线$曲线
 62
    18
420
        0
370
    -3
100
AcDbLine
 10
428.0760278722712
 20
-223.2900236845359
 30
0.0
 11
427.7760278722711
 21
-218.2900236845359
 31
0.0
  0
LINE
  5
C9
330
1F
100
AcDbEntity
  8
Make2D$可见线$曲线
 62
    18
420
        0
370
    -3
100
AcDbLine
 10
427.7760278722711
 20
-218.2900236845359
 30
0.0
 11
425.7760278722711
 21
-218.2900236845359
 31
0.0
  0
LINE
  5
CA
330
1F
100
AcDbEntity
  8
Make2D$可见线$曲线
 62
    18
420
        0
370
    -3
100
AcDbLine
 10
425.7760278722711
 20
-218.2900236845359
 30
0.0
 11
424.7760278722711
 21
-219.2900236845359
 31
0.0
  0
LINE
  5
CB
330
1F
100
AcDbEntity
  8
Make2D$可见线$曲线
 62
    18
420
        0
370
    -3
100
AcDbLine
 10
424.7760278722711
 20
-219.2900236845359
 30
0.0
 11
424.7760278722711
 21
-228.0445175825186
 31
0.0
  0
LINE
  5
CC
330
1F
100
AcDbEntity
  8
Make2D$可见线$曲线
 62
    18
420
        0
370
    -3
100
AcDbLine
 10
424.7760278722711
 20
-228.0445175825186
 30
0.0
 11
426.4641027253252
 21
-230.0200435131766
 31
0.0
  0
LINE
  5
CD
330
1F
100
AcDbEntity
  8
Make2D$可见线$曲线
 62
    18
420
        0
370
    -3
100
AcDbLine
 10
503.6641027253252
 20
-242.2095171973871
 30
0.0
 11
505.9760278722712
 21
-240.233991266729
 31
0.0
  0
LINE
  5
CE
330
1F
100
AcDbEntity
  8
Make2D$可见线$曲线
 62
    18
420
        0
370
    -3
100
AcDbLine
 10
505.9760278722712
 20
-240.233991266729
 30
0.0
 11
505.9760278722712
 21
-226.4100236845358
 31
0.0
  0
LINE
  5
CF
330
1F
100
AcDbEntity
  8
Make2D$可见线$曲线
 62
    18
420
        0
370
    -3
100
AcDbLine
 10
505.9760278722712
 20
-226.4100236845358
 30
0.0
 11
504.9760278722712
 21
-225.4100236845358
 31
0.0
  0
LINE
  5
D0
330
1F
100
AcDbEntity
  8
Make2D$可见线$曲线
 62
    18
420
        0
370
    -3
100
AcDbLine
 10
504.9760278722712
 20
-225.4100236845358
 30
0.0
 11
502.9760278722712
 21
-225.4100236845358
 31
0.0
  0
LINE
  5
D1
330
1F
100
AcDbEntity
  8
Make2D$可见线$曲线
 62
    18
420
        0
370
    -3
100
AcDbLine
 10
502.9760278722712
 20
-225.4100236845358
 30
0.0
 11
502.6760278722712
 21
-230.4050236845356
 31
0.0
  0
LINE
  5
D2
330
1F
100
AcDbEntity
  8
Make2D$可见线$曲线
 62
    18
420
        0
370
    -3
100
AcDbLine
 10
489.1877389762839
 20
-237.9857187269257
 30
0.0
 11
491.1020797335874
 21
-240.2260398829022
 31
0.0
  0
LINE
  5
D3
330
1F
100
AcDbEntity
  8
Make2D$可见线$曲线
 62
    18
420
        0
370
    -3
100
AcDbLine
 10
441.5643167682584
 20
-230.4662310098689
 30
0.0
 11
489.1877389762839
 21
-237.9857187269257
 31
0.0
  0
LINE
  5
D4
330
1F
100
AcDbEntity
  8
Make2D$可见线$曲线
 62
    18
420
        0
370
    -3
100
AcDbLine
 10
439.6499760109549
 20
-232.1020235056445
 30
0.0
 11
441.5643167682584
 21
-230.4662310098689
 31
0.0
  0
LINE
  5
D5
330
1F
100
AcDbEntity
  8
Make2D$可见线$曲线
 62
    18
420
        0
370
    -3
100
AcDbLine
 10
485.3760278722713
 20
-208.3900236845358
 30
0.0
 11
485.3760278722713
 21
-212.1900236845357
 31
0.0
  0
LINE
  5
D6
330
1F
100
AcDbEntity
  8
Make2D$可见线$曲线
 62
    18
420
        0
370
    -3
100
AcDbLine
 10
487.3760278722713
 20
-206.3900236845358
 30
0.0
 11
485.3760278722713
 21
-208.3900236845358
 31
0.0
  0
LINE
  5
D7
330
1F
100
AcDbEntity
  8
Make2D$可见线$曲线
 62
    18
420
        0
370
    -3
100
AcDbLine
 10
445.3760278722713
 20
-208.3900236845358
 30
0.0
 11
443.3760278722713
 21
-206.3900236845358
 31
0.0
  0
ARC
  5
D8
330
1F
100
AcDbEntity
  8
Make2D$可见线$曲线
 62
    18
420
        0
370
    -3
100
AcDbCircle
 10
-321.3614171632773
 20
-321.2155920871276
 30
0.0
 40
0.9999999999994884
210
0.0
220
0.0
230
-1.0
100
AcDbArc
 50
359.999999999987
 51
51.67076287078926
  0
ARC
  5
D9
330
1F
100
AcDbEntity
  8
Make2D$可见线$曲线
 62
    18
420
        0
370
    -3
100
AcDbCircle
 10
315.3614171632773
 20
-313.6262397909298
 30
0.0
 40
8.674619800065049
100
AcDbArc
 50
308.3292371292257
 51
204.8045479317706
  0
ARC
  5
DA
330
1F
100
AcDbEntity
  8
Make2D$可见线$曲线
 62
    18
420
        0
370
    -3
100
AcDbCircle
 10
-306.5793373355705
 20
-317.6849763154644
 30
0.0
 40
0.9999999999998825
210
0.0
220
0.0
230
-1.0
100
AcDbArc
 50
155.1954520682279
 51
270.0
  0
ARC
  5
DB
330
1F
100
AcDbEntity
  8
Make2D$可见线$曲线
 62
    18
420
        0
370
    -3
100
AcDbCircle
 10
-306.5259935462254
 20
-331.6849763154645
 30
0.0
 40
1.000000000000227
210
0.0
220
0.0
230
-1.0
100
AcDbArc
 50
90.00000000001629
 51
204.0404657576027
  0
ARC
  5
DC
330
1F
100
AcDbEntity
  8
Make2D$可见线$曲线
 62
    18
420
        0
370
    -3
100
AcDbCircle
 10
315.3614171632777
 20
-335.6262397909302
 30
0.0
 40
8.674619800064528
100
AcDbArc
 50
155.9595342423687
 51
51.67076287077551
  0
ARC
  5
DD
330
1F
100
AcDbEntity
  8
Make2D$可见线$曲线
 62
    18
420
        0
370
    -3
100
AcDbCircle
 10
-321.361417163278
 20
-328.0368874947321
 30
0.0
 40
1.000000000000476
210
0.0
220
0.0
230
-1.0
100
AcDbArc
 50
308.3292371292243
 51
359.9999999999772
  0
LINE
  5
DE
330
1F
100
AcDbEntity
  8
Make2D$可见线$曲线
 62
    18
420
        0
370
    -3
100
AcDbLine
 10
320.3614171632776
 20
-328.0368874947325
 30
0.0
 11
320.3614171632778
 21
-321.2155920871278
 31
0.0
  0
CIRCLE
  5
DF
330
1F
100
AcDbEntity
  8
Make2D$可见线$曲线
 62
    18
420
        0
370
    -3
100
AcDbCircle
 10
315.3614171632778
 20
-347.1262397909301
 30
0.0
 40
1.250000000000057
  0
CIRCLE
  5
E0
330
1F
100
AcDbEntity
  8
Make2D$可见线$曲线
 62
    18
420
        0
370
    -3
100
AcDbCircle
 10
325.3614171632778
 20
-317.6262397909301
 30
0.0
 40
1.250000000000057
  0
LINE
  5
E1
330
1F
100
AcDbEntity
  8
Make2D$可见线$曲线
 62
    18
420
        0
370
    -3
100
AcDbLine
 10
319.4551502349773
 20
-349.6193767079146
 30
0.0
 11
317.7910496463019
 21
-350.5099763154642
 31
0.0
  0
LINE
  5
E2
330
1F
100
AcDbEntity
  8
Make2D$可见线$曲线
 62
    18
420
        0
370
    -3
100
AcDbLine
 10
328.8614171632778
 20
-339.9044250400002
 30
0.0
 11
328.5255177519534
 21
-341.0138254324506
 31
0.0
  0
LINE
  5
E3
330
1F
100
AcDbEntity
  8
Make2D$可见线$曲线
 62
    18
420
        0
370
    -3
100
AcDbLine
 10
311.6441995470964
 20
-269.3099763154642
 30
0.0
 11
313.4206348334083
 21
-270.3911304777166
 31
0.0
  0
LINE
  5
E4
330
1F
100
AcDbEntity
  8
Make2D$可见线$曲线
 62
    18
420
        0
370
    -3
100
AcDbLine
 10
328.8614171632778
 20
-297.3099763154642
 30
0.0
 11
328.8614171632778
 21
-339.9044250400002
 31
0.0
  0
LINE
  5
E5
330
1F
100
AcDbEntity
  8
Make2D$可见线$曲线
 62
    18
420
        0
370
    -3
100
AcDbLine
 10
314.6304240176216
 20
-261.9868695012735
 30
0.0
 11
314.6304240176216
 21
-264.7868695012736
 31
0.0
  0
LINE
  5
E6
330
1F
100
AcDbEntity
  8
Make2D$可见线$曲线
 62
    18
420
        0
370
    -3
100
AcDbLine
 10
299.6304240176216
 20
-261.9868695012735
 30
0.0
 11
314.6304240176216
 21
-261.9868695012735
 31
0.0
  0
LINE
  5
E7
330
1F
100
AcDbEntity
  8
Make2D$可见线$曲线
 62
    18
420
        0
370
    -3
100
AcDbLine
 10
299.6304240176216
 20
-264.7868695012736
 30
0.0
 11
299.6304240176216
 21
-261.9868695012735
 31
0.0
  0
LINE
  5
E8
330
1F
100
AcDbEntity
  8
Make2D$可见线$曲线
 62
    18
420
        0
370
    -3
100
AcDbLine
 10
314.6304240176216
 20
-264.7868695012736
 30
0.0
 11
299.6304240176216
 21
-264.7868695012736
 31
0.0
  0
LINE
  5
E9
330
1F
100
AcDbEntity
  8
Make2D$可见线$曲线
 62
    18
420
        0
370
    -3
100
AcDbLine
 10
307.5154240176214
 20
-192.3868695012736
 30
0.0
 11
292.5154240176214
 21
-192.3868695012736
 31
0.0
  0
LINE
  5
EA
330
1F
100
AcDbEntity
  8
Make2D$可见线$曲线
 62
    18
420
        0
370
    -3
100
AcDbLine
 10
292.5154240176214
 20
-192.3868695012736
 30
0.0
 11
292.5154240176214
 21
-189.5868695012736
 31
0.0
  0
LINE
  5
EB
330
1F
100
AcDbEntity
  8
Make2D$可见线$曲线
 62
    18
420
        0
370
    -3
100
AcDbLine
 10
292.5154240176214
 20
-189.5868695012736
 30
0.0
 11
307.5154240176214
 21
-189.5868695012736
 31
0.0
  0
LINE
  5
EC
330
1F
100
AcDbEntity
  8
Make2D$可见线$曲线
 62
    18
420
        0
370
    -3
100
AcDbLine
 10
307.5154240176214
 20
-189.5868695012736
 30
0.0
 11
307.5154240176214
 21
-192.3868695012736
 31
0.0
  0
LINE
  5
ED
330
1F
100
AcDbEntity
  8
Make2D$可见线$曲线
 62
    18
420
        0
370
    -3
100
AcDbLine
 10
282.6864564354282
 20
-186.5868695012736
 30
0.0
 11
280.71093050477
 21
-188.8987946482196
 31
0.0
  0
LINE
  5
EE
330
1F
100
AcDbEntity
  8
Make2D$可见线$曲线
 62
    18
420
        0
370
    -3
100
AcDbLine
 10
292.9004041889807
 20
-266.0987946482196
 30
0.0
 11
294.8759301196387
 21
-267.7868695012736
 31
0.0
  0
LINE
  5
EF
330
1F
100
AcDbEntity
  8
Make2D$可见线$曲线
 62
    18
420
        0
370
    -3
100
AcDbLine
 10
319.5304240176215
 20
-267.7868695012736
 30
0.0
 11
321.5304240176215
 21
-265.7868695012736
 31
0.0
  0
LINE
  5
F0
330
1F
100
AcDbEntity
  8
Make2D$可见线$曲线
 62
    18
420
        0
370
    -3
100
AcDbLine
 10
321.5304240176215
 20
-188.5868695012736
 30
0.0
 11
319.5304240176215
 21
-186.5868695012736
 31
0.0
  0
LINE
  5
F1
330
1F
100
AcDbEntity
  8
Make2D$可见线$曲线
 62
    18
420
        0
370
    -3
100
AcDbLine
 10
318.5304240176215
 20
-207.1868695012736
 30
0.0
 11
318.5304240176215
 21
-247.1868695012736
 31
0.0
  0
LINE
  5
F2
330
1F
100
AcDbEntity
  8
Make2D$可见线$曲线
 62
    18
420
        0
370
    -3
100
AcDbLine
 10
315.7304240176215
 20
-207.1868695012736
 30
0.0
 11
318.5304240176215
 21
-207.1868695012736
 31
0.0
  0
LINE
  5
F3
330
1F
100
AcDbEntity
  8
Make2D$可见线$曲线
 62
    18
420
        0
370
    -3
100
AcDbLine
 10
315.7304240176215
 20
-247.1868695012736
 30
0.0
 11
315.7304240176215
 21
-207.1868695012736
 31
0.0
  0
LINE
  5
F4
330
1F
100
AcDbEntity
  8
Make2D$可见线$曲线
 62
    18
420
        0
370
    -3
100
AcDbLine
 10
318.5304240176215
 20
-247.1868695012736
 30
0.0
 11
315.7304240176215
 21
-247.1868695012736
 31
0.0
  0
LINE
  5
F5
330
1F
100
AcDbEntity
  8
Make2D$可见线$曲线
 62
    18
420
        0
370
    -3
100
AcDbLine
 10
321.5304240176215
 20
-246.1868695012736
 30
0.0
 11
320.5304240176215
 21
-245.1868695012736
 31
0.0
  0
LINE
  5
F6
330
1F
100
AcDbEntity
  8
Make2D$可见线$曲线
 62
    18
420
        0
370
    -3
100
AcDbLine
 10
320.5304240176215
 20
-245.1868695012736
 30
0.0
 11
320.5304240176215
 21
-209.1868695012736
 31
0.0
  0
LINE
  5
F7
330
1F
100
AcDbEntity
  8
Make2D$可见线$曲线
 62
    18
420
        0
370
    -3
100
AcDbLine
 10
320.5304240176215
 20
-209.1868695012736
 30
0.0
 11
321.5304240176215
 21
-208.1868695012736
 31
0.0
  0
LINE
  5
F8
330
1F
100
AcDbEntity
  8
Make2D$可见线$曲线
 62
    18
420
        0
370
    -3
100
AcDbLine
 10
281.0959106761293
 20
-265.1107197951657
 30
0.0
 11
276.1009106761292
 21
-265.4107197951656
 31
0.0
  0
LINE
  5
F9
330
1F
100
AcDbEntity
  8
Make2D$可见线$曲线
 62
    18
420
        0
370
    -3
100
AcDbLine
 10
276.1009106761292
 20
-265.4107197951656
 30
0.0
 11
276.1009106761292
 21
-267.4107197951656
 31
0.0
  0
LINE
  5
FA
330
1F
100
AcDbEntity
  8
Make2D$可见线$曲线
 62
    18
420
        0
370
    -3
100
AcDbLine
 10
276.1009106761292
 20
-267.4107197951656
 30
0.0
 11
277.1009106761292
 21
-268.4107197951656
 31
0.0
  0
LINE
  5
FB
330
1F
100
AcDbEntity
  8
Make2D$可见线$曲线
 62
    18
420
        0
370
    -3
100
AcDbLine
 10
277.1009106761292
 20
-268.4107197951656
 30
0.0
 11
290.9248782583225
 21
-268.4107197951656
 31
0.0
  0
LINE
  5
FC
330
1F
100
AcDbEntity
  8
Make2D$可见线$曲线
 62
    18
420
        0
370
    -3
100
AcDbLine
 10
292.9004041889807
 20
-266.0987946482196
 30
0.0
 11
280.71093050477
 21
-188.8987946482196
 31
0.0
  0
LINE
  5
FD
330
1F
100
AcDbEntity
  8
Make2D$可见线$曲线
 62
    18
420
        0
370
    -3
100
AcDbLine
 10
280.71093050477
 20
-188.8987946482196
 30
0.0
 11
278.7354045741117
 21
-187.2107197951656
 31
0.0
  0
LINE
  5
FE
330
1F
100
AcDbEntity
  8
Make2D$可见线$曲线
 62
    18
420
        0
370
    -3
100
AcDbLine
 10
269.980910676129
 20
-187.2107197951656
 30
0.0
 11
268.980910676129
 21
-188.2107197951656
 31
0.0
  0
LINE
  5
FF
330
1F
100
AcDbEntity
  8
Make2D$可见线$曲线
 62
    18
420
        0
370
    -3
100
AcDbLine
 10
268.980910676129
 20
-188.2107197951656
 30
0.0
 11
268.980910676129
 21
-190.2107197951656
 31
0.0
  0
LINE
  5
100
330
1F
100
AcDbEntity
  8
Make2D$可见线$曲线
 62
    18
420
        0
370
    -3
100
AcDbLine
 10
268.980910676129
 20
-190.2107197951656
 30
0.0
 11
273.980910676129
 21
-190.5107197951656
 31
0.0
  0
LINE
  5
101
330
1F
100
AcDbEntity
  8
Make2D$可见线$曲线
 62
    18
420
        0
370
    -3
100
AcDbLine
 10
273.980910676129
 20
-190.5107197951656
 30
0.0
 11
273.980910676129
 21
-192.7107197951656
 31
0.0
  0
LINE
  5
102
330
1F
100
AcDbEntity
  8
Make2D$可见线$曲线
 62
    18
420
        0
370
    -3
100
AcDbLine
 10
273.980910676129
 20
-192.7107197951656
 30
0.0
 11
258.0809106761292
 21
-193.0107197951656
 31
0.0
  0
LINE
  5
103
330
1F
100
AcDbEntity
  8
Make2D$可见线$曲线
 62
    18
420
        0
370
    -3
100
AcDbLine
 10
258.0809106761292
 20
-193.0107197951656
 30
0.0
 11
257.0809106761292
 21
-194.0107197951656
 31
0.0
  0
LINE
  5
104
330
1F
100
AcDbEntity
  8
Make2D$可见线$曲线
 62
    18
420
        0
370
    -3
100
AcDbLine
 10
262.8809106761291
 20
-207.8107197951656
 30
0.0
 11
262.8809106761291
 21
-220.0107197951656
 31
0.0
  0
LINE
  5
105
330
1F
100
AcDbEntity
  8
Make2D$可见线$曲线
 62
    18
420
        0
370
    -3
100
AcDbLine
 10
262.8809106761291
 20
-220.0107197951656
 30
0.0
 11
260.0809106761292
 21
-220.3107197951656
 31
0.0
  0
LINE
  5
106
330
1F
100
AcDbEntity
  8
Make2D$可见线$曲线
 62
    18
420
        0
370
    -3
100
AcDbLine
 10
260.0809106761292
 20
-220.3107197951656
 30
0.0
 11
260.0809106761292
 21
-235.3107197951656
 31
0.0
  0
LINE
  5
107
330
1F
100
AcDbEntity
  8
Make2D$可见线$曲线
 62
    18
420
        0
370
    -3
100
AcDbLine
 10
260.0809106761292
 20
-235.3107197951656
 30
0.0
 11
262.8809106761291
 21
-235.6107197951657
 31
0.0
  0
LINE
  5
108
330
1F
100
AcDbEntity
  8
Make2D$可见线$曲线
 62
    18
420
        0
370
    -3
100
AcDbLine
 10
262.8809106761291
 20
-235.6107197951657
 30
0.0
 11
262.8809106761291
 21
-247.8107197951656
 31
0.0
  0
LINE
  5
109
330
1F
100
AcDbEntity
  8
Make2D$可见线$曲线
 62
    18
420
        0
370
    -3
100
AcDbLine
 10
262.8809106761291
 20
-247.8107197951656
 30
0.0
 11
259.0809106761292
 21
-247.8107197951656
 31
0.0
  0
LINE
  5
10A
330
1F
100
AcDbEntity
  8
Make2D$可见线$曲线
 62
    18
420
        0
370
    -3
100
AcDbLine
 10
257.0809106761292
 20
-261.6107197951656
 30
0.0
 11
258.0809106761294
 21
-262.6107197951657
 31
0.0
  0
LINE
  5
10B
330
1F
100
AcDbEntity
  8
Make2D$可见线$曲线
 62
    18
420
        0
370
    -3
100
AcDbLine
 10
258.0809106761294
 20
-262.6107197951657
 30
0.0
 11
281.0959106761293
 21
-262.9107197951656
 31
0.0
  0
LINE
  5
10C
330
1F
100
AcDbEntity
  8
Make2D$可见线$曲线
 62
    18
420
        0
370
    -3
100
AcDbLine
 10
281.0959106761293
 20
-262.9107197951656
 30
0.0
 11
281.0959106761293
 21
-265.1107197951657
 31
0.0
  0
LINE
  5
10D
330
1F
100
AcDbEntity
  8
Make2D$可见线$曲线
 62
    18
420
        0
370
    -3
100
AcDbLine
 10
259.0809106761292
 20
-207.8107197951656
 30
0.0
 11
262.8809106761291
 21
-207.8107197951656
 31
0.0
  0
LINE
  5
10E
330
1F
100
AcDbEntity
  8
Make2D$可见线$曲线
 62
    18
420
        0
370
    -3
100
AcDbLine
 10
257.0809106761292
 20
-205.8107197951656
 30
0.0
 11
259.0809106761292
 21
-207.8107197951656
 31
0.0
  0
LINE
  5
10F
330
1F
100
AcDbEntity
  8
Make2D$可见线$曲线
 62
    18
420
        0
370
    -3
100
AcDbLine
 10
259.0809106761292
 20
-247.8107197951656
 30
0.0
 11
257.0809106761292
 21
-249.8107197951656
 31
0.0
  0
LINE
  5
110
330
1F
100
AcDbEntity
  8
Make2D$可见线$曲线
 62
    18
420
        0
370
    -3
100
AcDbLine
 10
525.2614171632777
 20
-197.0368702642129
 30
0.0
 11
525.2614171632777
 21
-204.1868702642129
 31
0.0
  0
LINE
  5
111
330
1F
100
AcDbEntity
  8
Make2D$可见线$曲线
 62
    18
420
        0
370
    -3
100
AcDbLine
 10
525.2614171632777
 20
-189.3868702642129
 30
0.0
 11
525.2614171632777
 21
-196.5368702642129
 31
0.0
  0
LINE
  5
112
330
1F
100
AcDbEntity
  8
Make2D$可见线$曲线
 62
    18
420
        0
370
    -3
100
AcDbLine
 10
525.2614171632777
 20
-251.836870264213
 30
0.0
 11
525.2614171632777
 21
-258.9868702642131
 31
0.0
  0
LINE
  5
113
330
1F
100
AcDbEntity
  8
Make2D$可见线$曲线
 62
    18
420
        0
370
    -3
100
AcDbLine
 10
525.2614171632777
 20
-244.186870264213
 30
0.0
 11
525.2614171632777
 21
-251.336870264213
 31
0.0
  0
LINE
  5
114
330
1F
100
AcDbEntity
  8
Make2D$可见线$曲线
 62
    18
420
        0
370
    -3
100
AcDbLine
 10
525.2614171632777
 20
-264.7443702642131
 30
0.0
 11
525.2614171632777
 21
-270.0018702642132
 31
0.0
  0
LINE
  5
115
330
1F
100
AcDbEntity
  8
Make2D$可见线$曲线
 62
    18
420
        0
370
    -3
100
AcDbLine
 10
525.2614171632777
 20
-258.9868702642131
 30
0.0
 11
525.2614171632777
 21
-264.2443702642131
 31
0.0
  0
LINE
  5
116
330
1F
100
AcDbEntity
  8
Make2D$可见线$曲线
 62
    18
420
        0
370
    -3
100
AcDbLine
 10
525.2614171632777
 20
-287.9428156491426
 30
0.0
 11
525.2614171632777
 21
-290.3837610340721
 31
0.0
  0
LINE
  5
117
330
1F
100
AcDbEntity
  8
Make2D$可见线$曲线
 62
    18
420
        0
370
    -3
100
AcDbLine
 10
525.2614171632777
 20
-285.0018702642132
 30
0.0
 11
525.2614171632777
 21
-287.4428156491426
 31
0.0
  0
LINE
  5
118
330
1F
100
AcDbEntity
  8
Make2D$可见线$曲线
 62
    18
420
        0
370
    -3
100
AcDbLine
 10
525.2614171632777
 20
-328.478521071906
 30
0.0
 11
525.2614171632777
 21
-366.0732811097398
 31
0.0
  0
LINE
  5
119
330
1F
100
AcDbEntity
  8
Make2D$可见线$曲线
 62
    18
420
        0
370
    -3
100
AcDbLine
 10
525.2614171632777
 20
-290.3837610340721
 30
0.0
 11
525.2614171632777
 21
-327.9785210719059
 31
0.0
  0
LINE
  5
11A
330
1F
100
AcDbEntity
  8
Make2D$可见线$曲线
 62
    18
420
        0
370
    -3
100
AcDbLine
 10
533.0614171632781
 20
-374.4575448068184
 30
0.0
 11
533.0614171632781
 21
-380.2075448068184
 31
0.0
  0
LINE
  5
11B
330
1F
100
AcDbEntity
  8
Make2D$可见线$曲线
 62
    18
420
        0
370
    -3
100
AcDbLine
 10
533.0614171632781
 20
-368.2075448068184
 30
0.0
 11
533.0614171632781
 21
-373.9575448068184
 31
0.0
  0
LINE
  5
11C
330
1F
100
AcDbEntity
  8
Make2D$可见线$曲线
 62
    18
420
        0
370
    -3
100
AcDbLine
 10
521.9114171632777
 20
-386.1075448068184
 30
0.0
 11
525.2614171632779
 21
-386.1075448068184
 31
0.0
  0
LINE
  5
11D
330
1F
100
AcDbEntity
  8
Make2D$可见线$曲线
 62
    18
420
        0
370
    -3
100
AcDbLine
 10
518.0614171632776
 20
-386.1075448068184
 30
0.0
 11
521.4114171632777
 21
-386.1075448068184
 31
0.0
  0
LINE
  5
11E
330
1F
100
AcDbEntity
  8
Make2D$可见线$曲线
 62
    18
420
        0
370
    -3
100
AcDbLine
 10
334.711417163278
 20
-386.1075448068184
 30
0.0
 11
338.0614171632781
 21
-386.1075448068184
 31
0.0
  0
LINE
  5
11F
330
1F
100
AcDbEntity
  8
Make2D$可见线$曲线
 62
    18
420
        0
370
    -3
100
AcDbLine
 10
330.861417163278
 20
-386.1075448068184
 30
0.0
 11
334.211417163278
 21
-386.1075448068184
 31
0.0
  0
LINE
  5
120
330
1F
100
AcDbEntity
  8
Make2D$可见线$曲线
 62
    18
420
        0
370
    -3
100
AcDbLine
 10
323.0614171632781
 20
-373.9575448068184
 30
0.0
 11
323.0614171632781
 21
-368.2075448068184
 31
0.0
  0
LINE
  5
121
330
1F
100
AcDbEntity
  8
Make2D$可见线$曲线
 62
    18
420
        0
370
    -3
100
AcDbLine
 10
323.0614171632781
 20
-380.2075448068184
 30
0.0
 11
323.0614171632781
 21
-374.4575448068184
 31
0.0
  0
LINE
  5
122
330
1F
100
AcDbEntity
  8
Make2D$可见线$曲线
 62
    18
420
        0
370
    -3
100
AcDbLine
 10
330.8614171632778
 20
-357.7322299103272
 30
0.0
 11
330.8614171632778
 21
-366.0732811097398
 31
0.0
  0
LINE
  5
123
330
1F
100
AcDbEntity
  8
Make2D$可见线$曲线
 62
    18
420
        0
370
    -3
100
AcDbLine
 10
330.8614171632778
 20
-348.8911787109147
 30
0.0
 11
330.8614171632778
 21
-357.2322299103272
 31
0.0
  0
LINE
  5
124
330
1F
100
AcDbEntity
  8
Make2D$可见线$曲线
 62
    18
420
        0
370
    -3
100
AcDbLine
 10
330.8614171632777
 20
-313.8874698724935
 30
0.0
 11
330.8614171632776
 21
-336.8911787109148
 31
0.0
  0
LINE
  5
125
330
1F
100
AcDbEntity
  8
Make2D$可见线$曲线
 62
    18
420
        0
370
    -3
100
AcDbLine
 10
330.8614171632778
 20
-290.3837610340721
 30
0.0
 11
330.8614171632777
 21
-313.3874698724935
 31
0.0
  0
LINE
  5
126
330
1F
100
AcDbEntity
  8
Make2D$可见线$曲线
 62
    18
420
        0
370
    -3
100
AcDbLine
 10
330.8614171632778
 20
-287.9428156491426
 30
0.0
 11
330.8614171632778
 21
-290.3837610340721
 31
0.0
  0
LINE
  5
127
330
1F
100
AcDbEntity
  8
Make2D$可见线$曲线
 62
    18
420
        0
370
    -3
100
AcDbLine
 10
330.8614171632778
 20
-285.0018702642132
 30
0.0
 11
330.8614171632778
 21
-287.4428156491426
 31
0.0
  0
LINE
  5
128
330
1F
100
AcDbEntity
  8
Make2D$可见线$曲线
 62
    18
420
        0
370
    -3
100
AcDbLine
 10
330.8614171632778
 20
-264.7443702642131
 30
0.0
 11
330.8614171632778
 21
-270.0018702642132
 31
0.0
  0
LINE
  5
129
330
1F
100
AcDbEntity
  8
Make2D$可见线$曲线
 62
    18
420
        0
370
    -3
100
AcDbLine
 10
330.8614171632778
 20
-258.9868702642131
 30
0.0
 11
330.8614171632778
 21
-264.2443702642131
 31
0.0
  0
LINE
  5
12A
330
1F
100
AcDbEntity
  8
Make2D$可见线$曲线
 62
    18
420
        0
370
    -3
100
AcDbLine
 10
330.8614171632778
 20
-251.836870264213
 30
0.0
 11
330.8614171632778
 21
-258.9868702642131
 31
0.0
  0
LINE
  5
12B
330
1F
100
AcDbEntity
  8
Make2D$可见线$曲线
 62
    18
420
        0
370
    -3
100
AcDbLine
 10
330.8614171632778
 20
-244.186870264213
 30
0.0
 11
330.8614171632778
 21
-251.336870264213
 31
0.0
  0
LINE
  5
12C
330
1F
100
AcDbEntity
  8
Make2D$可见线$曲线
 62
    18
420
        0
370
    -3
100
AcDbLine
 10
330.8614171632778
 20
-197.0368702642129
 30
0.0
 11
330.8614171632778
 21
-204.1868702642129
 31
0.0
  0
LINE
  5
12D
330
1F
100
AcDbEntity
  8
Make2D$可见线$曲线
 62
    18
420
        0
370
    -3
100
AcDbLine
 10
330.8614171632778
 20
-189.3868702642129
 30
0.0
 11
330.8614171632778
 21
-196.5368702642129
 31
0.0
  0
LINE
  5
12E
330
1F
100
AcDbEntity
  8
Make2D$可见线$曲线
 62
    18
420
        0
370
    -3
100
AcDbLine
 10
330.8614171632778
 20
-366.0732811097398
 30
0.0
 11
330.861417163278
 21
-367.2075448068184
 31
0.0
  0
LINE
  5
12F
330
1F
100
AcDbEntity
  8
Make2D$可见线$曲线
 62
    18
420
        0
370
    -3
100
AcDbLine
 10
525.2614171632779
 20
-366.0732811097398
 30
0.0
 11
525.2614171632779
 21
-367.2075448068184
 31
0.0
  0
LINE
  5
130
330
1F
100
AcDbEntity
  8
Make2D$可见线$曲线
 62
    18
420
        0
370
    -3
100
AcDbLine
 10
358.0614171632781
 20
-386.1075448068184
 30
0.0
 11
378.0614171632781
 21
-386.1075448068184
 31
0.0
  0
LINE
  5
131
330
1F
100
AcDbEntity
  8
Make2D$可见线$曲线
 62
    18
420
        0
370
    -3
100
AcDbLine
 10
338.0614171632781
 20
-386.1075448068184
 30
0.0
 11
338.0614171632781
 21
-383.3075448068184
 31
0.0
  0
LINE
  5
132
330
1F
100
AcDbEntity
  8
Make2D$可见线$曲线
 62
    18
420
        0
370
    -3
100
AcDbLine
 10
338.0614171632781
 20
-383.3075448068184
 30
0.0
 11
358.0614171632781
 21
-383.3075448068184
 31
0.0
  0
LINE
  5
133
330
1F
100
AcDbEntity
  8
Make2D$可见线$曲线
 62
    18
420
        0
370
    -3
100
AcDbLine
 10
358.0614171632781
 20
-383.3075448068184
 30
0.0
 11
358.0614171632781
 21
-386.1075448068184
 31
0.0
  0
LINE
  5
134
330
1F
100
AcDbEntity
  8
Make2D$可见线$曲线
 62
    18
420
        0
370
    -3
100
AcDbLine
 10
398.0614171632781
 20
-386.1075448068184
 30
0.0
 11
418.0614171632781
 21
-386.1075448068184
 31
0.0
  0
LINE
  5
135
330
1F
100
AcDbEntity
  8
Make2D$可见线$曲线
 62
    18
420
        0
370
    -3
100
AcDbLine
 10
378.0614171632781
 20
-386.1075448068184
 30
0.0
 11
378.0614171632781
 21
-383.3075448068184
 31
0.0
  0
LINE
  5
136
330
1F
100
AcDbEntity
  8
Make2D$可见线$曲线
 62
    18
420
        0
370
    -3
100
AcDbLine
 10
378.0614171632781
 20
-383.3075448068184
 30
0.0
 11
398.0614171632781
 21
-383.3075448068184
 31
0.0
  0
LINE
  5
137
330
1F
100
AcDbEntity
  8
Make2D$可见线$曲线
 62
    18
420
        0
370
    -3
100
AcDbLine
 10
398.0614171632781
 20
-383.3075448068184
 30
0.0
 11
398.0614171632781
 21
-386.1075448068184
 31
0.0
  0
LINE
  5
138
330
1F
100
AcDbEntity
  8
Make2D$可见线$曲线
 62
    18
420
        0
370
    -3
100
AcDbLine
 10
438.0614171632781
 20
-386.1075448068184
 30
0.0
 11
458.0614171632778
 21
-386.1075448068184
 31
0.0
  0
LINE
  5
139
330
1F
100
AcDbEntity
  8
Make2D$可见线$曲线
 62
    18
420
        0
370
    -3
100
AcDbLine
 10
418.0614171632781
 20
-386.1075448068184
 30
0.0
 11
418.0614171632781
 21
-383.3075448068184
 31
0.0
  0
LINE
  5
13A
330
1F
100
AcDbEntity
  8
Make2D$可见线$曲线
 62
    18
420
        0
370
    -3
100
AcDbLine
 10
418.0614171632781
 20
-383.3075448068184
 30
0.0
 11
438.0614171632781
 21
-383.3075448068184
 31
0.0
  0
LINE
  5
13B
330
1F
100
AcDbEntity
  8
Make2D$可见线$曲线
 62
    18
420
        0
370
    -3
100
AcDbLine
 10
438.0614171632781
 20
-383.3075448068184
 30
0.0
 11
438.0614171632781
 21
-386.1075448068184
 31
0.0
  0
LINE
  5
13C
330
1F
100
AcDbEntity
  8
Make2D$可见线$曲线
 62
    18
420
        0
370
    -3
100
AcDbLine
 10
478.0614171632778
 20
-386.1075448068184
 30
0.0
 11
498.0614171632778
 21
-386.1075448068184
 31
0.0
  0
LINE
  5
13D
330
1F
100
AcDbEntity
  8
Make2D$可见线$曲线
 62
    18
420
        0
370
    -3
100
AcDbLine
 10
458.0614171632778
 20
-386.1075448068184
 30
0.0
 11
458.0614171632778
 21
-383.3075448068184
 31
0.0
  0
LINE
  5
13E
330
1F
100
AcDbEntity
  8
Make2D$可见线$曲线
 62
    18
420
        0
370
    -3
100
AcDbLine
 10
458.0614171632778
 20
-383.3075448068184
 30
0.0
 11
478.0614171632778
 21
-383.3075448068184
 31
0.0
  0
LINE
  5
13F
330
1F
100
AcDbEntity
  8
Make2D$可见线$曲线
 62
    18
420
        0
370
    -3
100
AcDbLine
 10
478.0614171632778
 20
-383.3075448068184
 30
0.0
 11
478.0614171632778
 21
-386.1075448068184
 31
0.0
  0
LINE
  5
140
330
1F
100
AcDbEntity
  8
Make2D$可见线$曲线
 62
    18
420
        0
370
    -3
100
AcDbLine
 10
498.0614171632778
 20
-386.1075448068184
 30
0.0
 11
498.0614171632778
 21
-383.3075448068184
 31
0.0
  0
LINE
  5
141
330
1F
100
AcDbEntity
  8
Make2D$可见线$曲线
 62
    18
420
        0
370
    -3
100
AcDbLine
 10
498.0614171632778
 20
-383.3075448068184
 30
0.0
 11
518.0614171632776
 21
-383.3075448068184
 31
0.0
  0
LINE
  5
142
330
1F
100
AcDbEntity
  8
Make2D$可见线$曲线
 62
    18
420
        0
370
    -3
100
AcDbLine
 10
518.0614171632776
 20
-383.3075448068184
 30
0.0
 11
518.0614171632776
 21
-386.1075448068184
 31
0.0
  0
LINE
  5
143
330
1F
100
AcDbEntity
  8
Make2D$可见线$曲线
 62
    18
420
        0
370
    -3
100
AcDbLine
 10
533.0614171632781
 20
-368.2075448068184
 30
0.0
 11
532.0614171632781
 21
-367.2075448068184
 31
0.0
  0
LINE
  5
144
330
1F
100
AcDbEntity
  8
Make2D$可见线$曲线
 62
    18
420
        0
370
    -3
100
AcDbLine
 10
324.0614171632781
 20
-367.2075448068184
 30
0.0
 11
323.0614171632781
 21
-368.2075448068184
 31
0.0
  0
LINE
  5
145
330
1F
100
AcDbEntity
  8
Make2D$可见线$曲线
 62
    18
420
        0
370
    -3
100
AcDbLine
 10
532.0614171632781
 20
-367.2075448068184
 30
0.0
 11
530.8614171632778
 21
-367.2075448068184
 31
0.0
  0
LINE
  5
146
330
1F
100
AcDbEntity
  8
Make2D$可见线$曲线
 62
    18
420
        0
370
    -3
100
AcDbLine
 10
324.0614171632781
 20
-367.2075448068184
 30
0.0
 11
325.2614171632779
 21
-367.2075448068184
 31
0.0
  0
LINE
  5
147
330
1F
100
AcDbEntity
  8
Make2D$可见线$曲线
 62
    18
420
        0
370
    -3
100
AcDbLine
 10
531.0614171632781
 20
-382.2075448068184
 30
0.0
 11
533.0614171632781
 21
-380.2075448068184
 31
0.0
  0
LINE
  5
148
330
1F
100
AcDbEntity
  8
Make2D$可见线$曲线
 62
    18
420
        0
370
    -3
100
AcDbLine
 10
531.0614171632781
 20
-382.2075448068184
 30
0.0
 11
525.2614171632779
 21
-382.2075448068184
 31
0.0
  0
LINE
  5
149
330
1F
100
AcDbEntity
  8
Make2D$可见线$曲线
 62
    18
420
        0
370
    -3
100
AcDbLine
 10
323.0614171632781
 20
-380.2075448068184
 30
0.0
 11
325.0614171632781
 21
-382.2075448068184
 31
0.0
  0
LINE
  5
14A
330
1F
100
AcDbEntity
  8
Make2D$可见线$曲线
 62
    18
420
        0
370
    -3
100
AcDbLine
 10
325.0614171632781
 20
-382.2075448068184
 30
0.0
 11
330.861417163278
 21
-382.2075448068184
 31
0.0
  0
LINE
  5
14B
330
1F
100
AcDbEntity
  8
Make2D$可见线$曲线
 62
    18
420
        0
370
    -3
100
AcDbLine
 10
328.0614171632781
 20
-367.2075448068184
 30
0.0
 11
330.861417163278
 21
-367.2075448068184
 31
0.0
  0
LINE
  5
14C
330
1F
100
AcDbEntity
  8
Make2D$可见线$曲线
 62
    18
420
        0
370
    -3
100
AcDbLine
 10
327.7614171632779
 20
-372.2075448068184
 30
0.0
 11
325.5614171632781
 21
-372.2075448068184
 31
0.0
  0
LINE
  5
14D
330
1F
100
AcDbEntity
  8
Make2D$可见线$曲线
 62
    18
420
        0
370
    -3
100
AcDbLine
 10
325.5614171632781
 20
-372.2075448068184
 30
0.0
 11
325.2614171632779
 21
-367.2075448068184
 31
0.0
  0
LINE
  5
14E
330
1F
100
AcDbEntity
  8
Make2D$可见线$曲线
 62
    18
420
        0
370
    -3
100
AcDbLine
 10
328.0614171632781
 20
-367.2075448068184
 30
0.0
 11
327.7614171632779
 21
-372.2075448068184
 31
0.0
  0
LINE
  5
14F
330
1F
100
AcDbEntity
  8
Make2D$可见线$曲线
 62
    18
420
        0
370
    -3
100
AcDbLine
 10
528.0614171632781
 20
-367.2075448068184
 30
0.0
 11
525.2614171632779
 21
-367.2075448068184
 31
0.0
  0
LINE
  5
150
330
1F
100
AcDbEntity
  8
Make2D$可见线$曲线
 62
    18
420
        0
370
    -3
100
AcDbLine
 10
528.3614171632778
 20
-372.2075448068184
 30
0.0
 11
528.0614171632781
 21
-367.2075448068184
 31
0.0
  0
LINE
  5
151
330
1F
100
AcDbEntity
  8
Make2D$可见线$曲线
 62
    18
420
        0
370
    -3
100
AcDbLine
 10
530.8614171632778
 20
-367.2075448068184
 30
0.0
 11
530.5614171632781
 21
-372.2075448068184
 31
0.0
  0
LINE
  5
152
330
1F
100
AcDbEntity
  8
Make2D$可见线$曲线
 62
    18
420
        0
370
    -3
100
AcDbLine
 10
530.5614171632781
 20
-372.2075448068184
 30
0.0
 11
528.3614171632778
 21
-372.2075448068184
 31
0.0
  0
LINE
  5
153
330
1F
100
AcDbEntity
  8
Make2D$可见线$曲线
 62
    18
420
        0
370
    -3
100
AcDbLine
 10
525.2614171632779
 20
-382.2075448068184
 30
0.0
 11
525.2614171632779
 21
-386.1075448068184
 31
0.0
  0
LINE
  5
154
330
1F
100
AcDbEntity
  8
Make2D$可见线$曲线
 62
    18
420
        0
370
    -3
100
AcDbLine
 10
330.861417163278
 20
-382.2075448068184
 30
0.0
 11
330.861417163278
 21
-386.1075448068184
 31
0.0
  0
LINE
  5
155
330
1F
100
AcDbEntity
  8
Make2D$可见线$曲线
 62
    18
420
        0
370
    -3
100
AcDbLine
 10
328.0614171632778
 20
-216.6868702642129
 30
0.0
 11
328.0614171632778
 21
-231.686870264213
 31
0.0
  0
LINE
  5
156
330
1F
100
AcDbEntity
  8
Make2D$可见线$曲线
 62
    18
420
        0
370
    -3
100
AcDbLine
 10
325.2614171632777
 20
-216.6868702642129
 30
0.0
 11
328.0614171632778
 21
-216.6868702642129
 31
0.0
  0
LINE
  5
157
330
1F
100
AcDbEntity
  8
Make2D$可见线$曲线
 62
    18
420
        0
370
    -3
100
AcDbLine
 10
325.2614171632777
 20
-231.686870264213
 30
0.0
 11
325.2614171632777
 21
-216.6868702642129
 31
0.0
  0
LINE
  5
158
330
1F
100
AcDbEntity
  8
Make2D$可见线$曲线
 62
    18
420
        0
370
    -3
100
AcDbLine
 10
328.0614171632778
 20
-231.686870264213
 30
0.0
 11
325.2614171632777
 21
-231.686870264213
 31
0.0
  0
LINE
  5
159
330
1F
100
AcDbEntity
  8
Make2D$可见线$曲线
 62
    18
420
        0
370
    -3
100
AcDbLine
 10
530.8614171632776
 20
-231.686870264213
 30
0.0
 11
528.0614171632778
 21
-231.686870264213
 31
0.0
  0
LINE
  5
15A
330
1F
100
AcDbEntity
  8
Make2D$可见线$曲线
 62
    18
420
        0
370
    -3
100
AcDbLine
 10
530.8614171632776
 20
-216.6868702642129
 30
0.0
 11
530.8614171632776
 21
-231.686870264213
 31
0.0
  0
LINE
  5
15B
330
1F
100
AcDbEntity
  8
Make2D$可见线$曲线
 62
    18
420
        0
370
    -3
100
AcDbLine
 10
528.0614171632778
 20
-216.6868702642129
 30
0.0
 11
530.8614171632776
 21
-216.6868702642129
 31
0.0
  0
LINE
  5
15C
330
1F
100
AcDbEntity
  8
Make2D$可见线$曲线
 62
    18
420
        0
370
    -3
100
AcDbLine
 10
528.0614171632778
 20
-231.686870264213
 30
0.0
 11
528.0614171632778
 21
-216.6868702642129
 31
0.0
  0
LINE
  5
15D
330
1F
100
AcDbEntity
  8
Make2D$可见线$曲线
 62
    18
420
        0
370
    -3
100
AcDbLine
 10
531.0614171632778
 20
-204.1868702642129
 30
0.0
 11
525.2614171632777
 21
-204.1868702642129
 31
0.0
  0
LINE
  5
15E
330
1F
100
AcDbEntity
  8
Make2D$可见线$曲线
 62
    18
420
        0
370
    -3
100
AcDbLine
 10
533.0614171632778
 20
-206.1868702642129
 30
0.0
 11
533.0614171632778
 21
-242.186870264213
 31
0.0
  0
LINE
  5
15F
330
1F
100
AcDbEntity
  8
Make2D$可见线$曲线
 62
    18
420
        0
370
    -3
100
AcDbLine
 10
531.0614171632778
 20
-244.186870264213
 30
0.0
 11
525.2614171632777
 21
-244.186870264213
 31
0.0
  0
LINE
  5
160
330
1F
100
AcDbEntity
  8
Make2D$可见线$曲线
 62
    18
420
        0
370
    -3
100
AcDbLine
 10
533.0614171632778
 20
-206.1868702642129
 30
0.0
 11
531.0614171632778
 21
-204.1868702642129
 31
0.0
  0
LINE
  5
161
330
1F
100
AcDbEntity
  8
Make2D$可见线$曲线
 62
    18
420
        0
370
    -3
100
AcDbLine
 10
531.0614171632778
 20
-244.186870264213
 30
0.0
 11
533.0614171632778
 21
-242.186870264213
 31
0.0
  0
LINE
  5
162
330
1F
100
AcDbEntity
  8
Make2D$可见线$曲线
 62
    18
420
        0
370
    -3
100
AcDbLine
 10
325.0614171632778
 20
-244.186870264213
 30
0.0
 11
330.8614171632778
 21
-244.186870264213
 31
0.0
  0
LINE
  5
163
330
1F
100
AcDbEntity
  8
Make2D$可见线$曲线
 62
    18
420
        0
370
    -3
100
AcDbLine
 10
323.0614171632778
 20
-242.186870264213
 30
0.0
 11
323.0614171632778
 21
-206.1868702642129
 31
0.0
  0
LINE
  5
164
330
1F
100
AcDbEntity
  8
Make2D$可见线$曲线
 62
    18
420
        0
370
    -3
100
AcDbLine
 10
325.0614171632778
 20
-204.1868702642129
 30
0.0
 11
330.8614171632778
 21
-204.1868702642129
 31
0.0
  0
LINE
  5
165
330
1F
100
AcDbEntity
  8
Make2D$可见线$曲线
 62
    18
420
        0
370
    -3
100
AcDbLine
 10
323.0614171632778
 20
-242.186870264213
 30
0.0
 11
325.0614171632778
 21
-244.186870264213
 31
0.0
  0
LINE
  5
166
330
1F
100
AcDbEntity
  8
Make2D$可见线$曲线
 62
    18
420
        0
370
    -3
100
AcDbLine
 10
325.0614171632778
 20
-204.1868702642129
 30
0.0
 11
323.0614171632778
 21
-206.1868702642129
 31
0.0
  0
LINE
  5
167
330
1F
100
AcDbEntity
  8
Make2D$可见线$曲线
 62
    18
420
        0
370
    -3
100
AcDbLine
 10
330.8614171632778
 20
-189.3868702642129
 30
0.0
 11
338.0614171632778
 21
-189.3868702642129
 31
0.0
  0
LINE
  5
168
330
1F
100
AcDbEntity
  8
Make2D$可见线$曲线
 62
    18
420
        0
370
    -3
100
AcDbLine
 10
338.0614171632778
 20
-189.3868702642129
 30
0.0
 11
338.0614171632778
 21
-186.5868695012736
 31
0.0
  0
LINE
  5
169
330
1F
100
AcDbEntity
  8
Make2D$可见线$曲线
 62
    18
420
        0
370
    -3
100
AcDbLine
 10
338.0614171632778
 20
-186.5868695012736
 30
0.0
 11
358.0614171632778
 21
-186.5868695012736
 31
0.0
  0
LINE
  5
16A
330
1F
100
AcDbEntity
  8
Make2D$可见线$曲线
 62
    18
420
        0
370
    -3
100
AcDbLine
 10
518.0614171632774
 20
-189.3868702642129
 30
0.0
 11
518.0614171632774
 21
-186.5868695012736
 31
0.0
  0
LINE
  5
16B
330
1F
100
AcDbEntity
  8
Make2D$可见线$曲线
 62
    18
420
        0
370
    -3
100
AcDbLine
 10
518.0614171632774
 20
-189.3868702642129
 30
0.0
 11
525.2614171632777
 21
-189.3868702642129
 31
0.0
  0
LINE
  5
16C
330
1F
100
AcDbEntity
  8
Make2D$可见线$曲线
 62
    18
420
        0
370
    -3
100
AcDbLine
 10
478.0614171632776
 20
-189.3868702642129
 30
0.0
 11
478.0614171632776
 21
-186.5868695012736
 31
0.0
  0
LINE
  5
16D
330
1F
100
AcDbEntity
  8
Make2D$可见线$曲线
 62
    18
420
        0
370
    -3
100
AcDbLine
 10
478.0614171632776
 20
-189.3868702642129
 30
0.0
 11
498.0614171632776
 21
-189.3868702642129
 31
0.0
  0
LINE
  5
16E
330
1F
100
AcDbEntity
  8
Make2D$可见线$曲线
 62
    18
420
        0
370
    -3
100
AcDbLine
 10
498.0614171632776
 20
-189.3868702642129
 30
0.0
 11
498.0614171632776
 21
-186.5868695012736
 31
0.0
  0
LINE
  5
16F
330
1F
100
AcDbEntity
  8
Make2D$可见线$曲线
 62
    18
420
        0
370
    -3
100
AcDbLine
 10
498.0614171632776
 20
-186.5868695012736
 30
0.0
 11
518.0614171632774
 21
-186.5868695012736
 31
0.0
  0
LINE
  5
170
330
1F
100
AcDbEntity
  8
Make2D$可见线$曲线
 62
    18
420
        0
370
    -3
100
AcDbLine
 10
438.0614171632778
 20
-189.3868702642129
 30
0.0
 11
438.0614171632778
 21
-186.5868695012736
 31
0.0
  0
LINE
  5
171
330
1F
100
AcDbEntity
  8
Make2D$可见线$曲线
 62
    18
420
        0
370
    -3
100
AcDbLine
 10
438.0614171632778
 20
-189.3868702642129
 30
0.0
 11
458.0614171632778
 21
-189.3868702642129
 31
0.0
  0
LINE
  5
172
330
1F
100
AcDbEntity
  8
Make2D$可见线$曲线
 62
    18
420
        0
370
    -3
100
AcDbLine
 10
458.0614171632778
 20
-189.3868702642129
 30
0.0
 11
458.0614171632778
 21
-186.5868695012736
 31
0.0
  0
LINE
  5
173
330
1F
100
AcDbEntity
  8
Make2D$可见线$曲线
 62
    18
420
        0
370
    -3
100
AcDbLine
 10
458.0614171632778
 20
-186.5868695012736
 30
0.0
 11
478.0614171632776
 21
-186.5868695012736
 31
0.0
  0
LINE
  5
174
330
1F
100
AcDbEntity
  8
Make2D$可见线$曲线
 62
    18
420
        0
370
    -3
100
AcDbLine
 10
398.0614171632778
 20
-189.3868702642129
 30
0.0
 11
398.0614171632778
 21
-186.5868695012736
 31
0.0
  0
LINE
  5
175
330
1F
100
AcDbEntity
  8
Make2D$可见线$曲线
 62
    18
420
        0
370
    -3
100
AcDbLine
 10
398.0614171632778
 20
-189.3868702642129
 30
0.0
 11
418.0614171632778
 21
-189.3868702642129
 31
0.0
  0
LINE
  5
176
330
1F
100
AcDbEntity
  8
Make2D$可见线$曲线
 62
    18
420
        0
370
    -3
100
AcDbLine
 10
418.0614171632778
 20
-189.3868702642129
 30
0.0
 11
418.0614171632778
 21
-186.5868695012736
 31
0.0
  0
LINE
  5
177
330
1F
100
AcDbEntity
  8
Make2D$可见线$曲线
 62
    18
420
        0
370
    -3
100
AcDbLine
 10
418.0614171632778
 20
-186.5868695012736
 30
0.0
 11
438.0614171632778
 21
-186.5868695012736
 31
0.0
  0
LINE
  5
178
330
1F
100
AcDbEntity
  8
Make2D$可见线$曲线
 62
    18
420
        0
370
    -3
100
AcDbLine
 10
358.0614171632778
 20
-189.3868702642129
 30
0.0
 11
358.0614171632778
 21
-186.5868695012736
 31
0.0
  0
LINE
  5
179
330
1F
100
AcDbEntity
  8
Make2D$可见线$曲线
 62
    18
420
        0
370
    -3
100
AcDbLine
 10
358.0614171632778
 20
-189.3868702642129
 30
0.0
 11
378.0614171632778
 21
-189.3868702642129
 31
0.0
  0
LINE
  5
17A
330
1F
100
AcDbEntity
  8
Make2D$可见线$曲线
 62
    18
420
        0
370
    -3
100
AcDbLine
 10
378.0614171632778
 20
-189.3868702642129
 30
0.0
 11
378.0614171632778
 21
-186.5868695012736
 31
0.0
  0
LINE
  5
17B
330
1F
100
AcDbEntity
  8
Make2D$可见线$曲线
 62
    18
420
        0
370
    -3
100
AcDbLine
 10
378.0614171632778
 20
-186.5868695012736
 30
0.0
 11
398.0614171632778
 21
-186.5868695012736
 31
0.0
  0
LINE
  5
17C
330
1F
100
AcDbEntity
  8
Make2D$可见线$曲线
 62
    18
420
        0
370
    -3
100
AcDbLine
 10
330.8614171632778
 20
-258.9868702642131
 30
0.0
 11
338.0614171632778
 21
-258.9868702642131
 31
0.0
  0
LINE
  5
17D
330
1F
100
AcDbEntity
  8
Make2D$可见线$曲线
 62
    18
420
        0
370
    -3
100
AcDbLine
 10
528.3614171632776
 20
-280.0018702642132
 30
0.0
 11
530.5614171632778
 21
-280.0018702642132
 31
0.0
  0
LINE
  5
17E
330
1F
100
AcDbEntity
  8
Make2D$可见线$曲线
 62
    18
420
        0
370
    -3
100
AcDbLine
 10
530.5614171632778
 20
-280.0018702642132
 30
0.0
 11
530.8614171632776
 21
-285.0018702642132
 31
0.0
  0
LINE
  5
17F
330
1F
100
AcDbEntity
  8
Make2D$可见线$曲线
 62
    18
420
        0
370
    -3
100
AcDbLine
 10
528.0614171632778
 20
-285.0018702642132
 30
0.0
 11
528.3614171632776
 21
-280.0018702642132
 31
0.0
  0
LINE
  5
180
330
1F
100
AcDbEntity
  8
Make2D$可见线$曲线
 62
    18
420
        0
370
    -3
100
AcDbLine
 10
528.0614171632778
 20
-285.0018702642132
 30
0.0
 11
525.2614171632777
 21
-285.0018702642132
 31
0.0
  0
LINE
  5
181
330
1F
100
AcDbEntity
  8
Make2D$可见线$曲线
 62
    18
420
        0
370
    -3
100
AcDbLine
 10
327.7614171632777
 20
-280.0018702642132
 30
0.0
 11
328.0614171632778
 21
-285.0018702642132
 31
0.0
  0
LINE
  5
182
330
1F
100
AcDbEntity
  8
Make2D$可见线$曲线
 62
    18
420
        0
370
    -3
100
AcDbLine
 10
325.2614171632777
 20
-285.0018702642132
 30
0.0
 11
325.5614171632778
 21
-280.0018702642132
 31
0.0
  0
LINE
  5
183
330
1F
100
AcDbEntity
  8
Make2D$可见线$曲线
 62
    18
420
        0
370
    -3
100
AcDbLine
 10
325.5614171632778
 20
-280.0018702642132
 30
0.0
 11
327.7614171632777
 21
-280.0018702642132
 31
0.0
  0
LINE
  5
184
330
1F
100
AcDbEntity
  8
Make2D$可见线$曲线
 62
    18
420
        0
370
    -3
100
AcDbLine
 10
328.0614171632778
 20
-285.0018702642132
 30
0.0
 11
330.8614171632778
 21
-285.0018702642132
 31
0.0
  0
LINE
  5
185
330
1F
100
AcDbEntity
  8
Make2D$可见线$曲线
 62
    18
420
        0
370
    -3
100
AcDbLine
 10
325.0614156373986
 20
-270.0018702642132
 30
0.0
 11
330.8614171632778
 21
-270.0018702642132
 31
0.0
  0
LINE
  5
186
330
1F
100
AcDbEntity
  8
Make2D$可见线$曲线
 62
    18
420
        0
370
    -3
100
AcDbLine
 10
325.0614156373986
 20
-270.0018702642132
 30
0.0
 11
323.0614156373988
 21
-272.0018702642132
 31
0.0
  0
LINE
  5
187
330
1F
100
AcDbEntity
  8
Make2D$可见线$曲线
 62
    18
420
        0
370
    -3
100
AcDbLine
 10
531.0614186891567
 20
-270.0018702642132
 30
0.0
 11
525.2614171632777
 21
-270.0018702642132
 31
0.0
  0
LINE
  5
188
330
1F
100
AcDbEntity
  8
Make2D$可见线$曲线
 62
    18
420
        0
370
    -3
100
AcDbLine
 10
533.0614186891567
 20
-272.0018702642132
 30
0.0
 11
531.0614186891567
 21
-270.0018702642132
 31
0.0
  0
LINE
  5
189
330
1F
100
AcDbEntity
  8
Make2D$可见线$曲线
 62
    18
420
        0
370
    -3
100
AcDbLine
 10
533.0614186891567
 20
-284.0018702642132
 30
0.0
 11
533.0614186891567
 21
-272.0018702642132
 31
0.0
  0
LINE
  5
18A
330
1F
100
AcDbEntity
  8
Make2D$可见线$曲线
 62
    18
420
        0
370
    -3
100
AcDbLine
 10
532.0614186891567
 20
-285.0018702642132
 30
0.0
 11
530.8614171632776
 21
-285.0018702642132
 31
0.0
  0
LINE
  5
18B
330
1F
100
AcDbEntity
  8
Make2D$可见线$曲线
 62
    18
420
        0
370
    -3
100
AcDbLine
 10
323.0614156373988
 20
-284.0018702642132
 30
0.0
 11
323.0614156373988
 21
-272.0018702642132
 31
0.0
  0
LINE
  5
18C
330
1F
100
AcDbEntity
  8
Make2D$可见线$曲线
 62
    18
420
        0
370
    -3
100
AcDbLine
 10
324.0614156373988
 20
-285.0018702642132
 30
0.0
 11
325.2614171632777
 21
-285.0018702642132
 31
0.0
  0
LINE
  5
18D
330
1F
100
AcDbEntity
  8
Make2D$可见线$曲线
 62
    18
420
        0
370
    -3
100
AcDbLine
 10
532.0614186891567
 20
-285.0018702642132
 30
0.0
 11
533.0614186891567
 21
-284.0018702642132
 31
0.0
  0
LINE
  5
18E
330
1F
100
AcDbEntity
  8
Make2D$可见线$曲线
 62
    18
420
        0
370
    -3
100
AcDbLine
 10
323.0614156373988
 20
-284.0018702642132
 30
0.0
 11
324.0614156373988
 21
-285.0018702642132
 31
0.0
  0
LINE
  5
18F
330
1F
100
AcDbEntity
  8
Make2D$可见线$曲线
 62
    18
420
        0
370
    -3
100
AcDbLine
 10
518.0614171632774
 20
-258.9868702642131
 30
0.0
 11
518.0614171632774
 21
-261.7868702642131
 31
0.0
  0
LINE
  5
190
330
1F
100
AcDbEntity
  8
Make2D$可见线$曲线
 62
    18
420
        0
370
    -3
100
AcDbLine
 10
518.0614171632774
 20
-261.7868702642131
 30
0.0
 11
498.0614171632776
 21
-261.7868702642131
 31
0.0
  0
LINE
  5
191
330
1F
100
AcDbEntity
  8
Make2D$可见线$曲线
 62
    18
420
        0
370
    -3
100
AcDbLine
 10
498.0614171632776
 20
-261.7868702642131
 30
0.0
 11
498.0614171632776
 21
-258.9868702642131
 31
0.0
  0
LINE
  5
192
330
1F
100
AcDbEntity
  8
Make2D$可见线$曲线
 62
    18
420
        0
370
    -3
100
AcDbLine
 10
518.0614171632774
 20
-258.9868702642131
 30
0.0
 11
525.2614171632777
 21
-258.9868702642131
 31
0.0
  0
LINE
  5
193
330
1F
100
AcDbEntity
  8
Make2D$可见线$曲线
 62
    18
420
        0
370
    -3
100
AcDbLine
 10
478.0614171632776
 20
-258.9868702642131
 30
0.0
 11
478.0614171632776
 21
-261.7868702642131
 31
0.0
  0
LINE
  5
194
330
1F
100
AcDbEntity
  8
Make2D$可见线$曲线
 62
    18
420
        0
370
    -3
100
AcDbLine
 10
478.0614171632776
 20
-261.7868702642131
 30
0.0
 11
458.0614171632776
 21
-261.7868702642131
 31
0.0
  0
LINE
  5
195
330
1F
100
AcDbEntity
  8
Make2D$可见线$曲线
 62
    18
420
        0
370
    -3
100
AcDbLine
 10
458.0614171632776
 20
-261.7868702642131
 30
0.0
 11
458.0614171632776
 21
-258.9868702642131
 31
0.0
  0
LINE
  5
196
330
1F
100
AcDbEntity
  8
Make2D$可见线$曲线
 62
    18
420
        0
370
    -3
100
AcDbLine
 10
478.0614171632776
 20
-258.9868702642131
 30
0.0
 11
498.0614171632776
 21
-258.9868702642131
 31
0.0
  0
LINE
  5
197
330
1F
100
AcDbEntity
  8
Make2D$可见线$曲线
 62
    18
420
        0
370
    -3
100
AcDbLine
 10
438.0614171632778
 20
-258.9868702642131
 30
0.0
 11
438.0614171632778
 21
-261.7868702642131
 31
0.0
  0
LINE
  5
198
330
1F
100
AcDbEntity
  8
Make2D$可见线$曲线
 62
    18
420
        0
370
    -3
100
AcDbLine
 10
438.0614171632778
 20
-261.7868702642131
 30
0.0
 11
418.0614171632778
 21
-261.7868702642131
 31
0.0
  0
LINE
  5
199
330
1F
100
AcDbEntity
  8
Make2D$可见线$曲线
 62
    18
420
        0
370
    -3
100
AcDbLine
 10
418.0614171632778
 20
-261.7868702642131
 30
0.0
 11
418.0614171632778
 21
-258.9868702642131
 31
0.0
  0
LINE
  5
19A
330
1F
100
AcDbEntity
  8
Make2D$可见线$曲线
 62
    18
420
        0
370
    -3
100
AcDbLine
 10
438.0614171632778
 20
-258.9868702642131
 30
0.0
 11
458.0614171632776
 21
-258.9868702642131
 31
0.0
  0
LINE
  5
19B
330
1F
100
AcDbEntity
  8
Make2D$可见线$曲线
 62
    18
420
        0
370
    -3
100
AcDbLine
 10
398.0614171632778
 20
-258.9868702642131
 30
0.0
 11
398.0614171632778
 21
-261.7868702642131
 31
0.0
  0
LINE
  5
19C
330
1F
100
AcDbEntity
  8
Make2D$可见线$曲线
 62
    18
420
        0
370
    -3
100
AcDbLine
 10
398.0614171632778
 20
-261.7868702642131
 30
0.0
 11
378.0614171632778
 21
-261.7868702642131
 31
0.0
  0
LINE
  5
19D
330
1F
100
AcDbEntity
  8
Make2D$可见线$曲线
 62
    18
420
        0
370
    -3
100
AcDbLine
 10
378.0614171632778
 20
-261.7868702642131
 30
0.0
 11
378.0614171632778
 21
-258.9868702642131
 31
0.0
  0
LINE
  5
19E
330
1F
100
AcDbEntity
  8
Make2D$可见线$曲线
 62
    18
420
        0
370
    -3
100
AcDbLine
 10
398.0614171632778
 20
-258.9868702642131
 30
0.0
 11
418.0614171632778
 21
-258.9868702642131
 31
0.0
  0
LINE
  5
19F
330
1F
100
AcDbEntity
  8
Make2D$可见线$曲线
 62
    18
420
        0
370
    -3
100
AcDbLine
 10
358.0614171632778
 20
-258.9868702642131
 30
0.0
 11
358.0614171632778
 21
-261.7868702642131
 31
0.0
  0
LINE
  5
1A0
330
1F
100
AcDbEntity
  8
Make2D$可见线$曲线
 62
    18
420
        0
370
    -3
100
AcDbLine
 10
358.0614171632778
 20
-261.7868702642131
 30
0.0
 11
338.0614171632778
 21
-261.7868702642131
 31
0.0
  0
LINE
  5
1A1
330
1F
100
AcDbEntity
  8
Make2D$可见线$曲线
 62
    18
420
        0
370
    -3
100
AcDbLine
 10
338.0614171632778
 20
-261.7868702642131
 30
0.0
 11
338.0614171632778
 21
-258.9868702642131
 31
0.0
  0
LINE
  5
1A2
330
1F
100
AcDbEntity
  8
Make2D$可见线$曲线
 62
    18
420
        0
370
    -3
100
AcDbLine
 10
358.0614171632778
 20
-258.9868702642131
 30
0.0
 11
378.0614171632778
 21
-258.9868702642131
 31
0.0
  0
LINE
  5
1A4
330
1F
100
AcDbEntity
  8
刻线
100
AcDbLine
 10
500.0605883548745
 20
-328.6849763154643
 30
-20.8342636970786
 11
500.0605883548745
 21
-361.6849763154642
 31
-20.8342636970786
  0
LINE
  5
1A5
330
1F
100
AcDbEntity
  8
刻线
100
AcDbLine
 10
480.0605883548745
 20
-328.6849763154643
 30
-20.8342636970786
 11
480.0605883548745
 21
-361.6849763154642
 31
-20.8342636970786
  0
LINE
  5
1A6
330
1F
100
AcDbEntity
  8
刻线
100
AcDbLine
 10
440.0605883548745
 20
-328.6849763154643
 30
-20.8342636970786
 11
440.0605883548745
 21
-361.6849763154642
 31
-20.8342636970786
  0
LINE
  5
1A7
330
1F
100
AcDbEntity
  8
刻线
100
AcDbLine
 10
420.0605883548745
 20
-328.6849763154643
 30
-20.8342636970786
 11
420.0605883548745
 21
-361.6849763154642
 31
-20.8342636970786
  0
LINE
  5
1A8
330
1F
100
AcDbEntity
  8
刻线
100
AcDbLine
 10
492.5605883548744
 20
-328.6849763154642
 30
0.0
 11
507.5605883548744
 21
-328.6849763154642
 31
0.0
  0
LINE
  5
1A9
330
1F
100
AcDbEntity
  8
刻线
100
AcDbLine
 10
507.5605883548744
 20
-328.6849763154642
 30
0.0
 11
507.5605883548744
 21
-295.6849763154642
 31
0.0
  0
LINE
  5
1AA
330
1F
100
AcDbEntity
  8
刻线
100
AcDbLine
 10
492.5605883548744
 20
-295.6849763154642
 30
0.0
 11
492.5605883548744
 21
-328.6849763154642
 31
0.0
  0
LINE
  5
1AB
330
1F
100
AcDbEntity
  8
刻线
100
AcDbLine
 10
499.5605883548745
 20
-328.6849763154642
 30
0.0
 11
507.5605883548744
 21
-320.6849763154643
 31
0.0
  0
LINE
  5
1AC
330
1F
100
AcDbEntity
  8
刻线
100
AcDbLine
 10
498.5605883548744
 20
-328.6849763154642
 30
0.0
 11
507.5605883548744
 21
-319.6849763154642
 31
0.0
  0
LINE
  5
1AD
330
1F
100
AcDbEntity
  8
刻线
100
AcDbLine
 10
497.5605883548744
 20
-328.6849763154642
 30
0.0
 11
507.5605883548744
 21
-318.6849763154642
 31
0.0
  0
LINE
  5
1AE
330
1F
100
AcDbEntity
  8
刻线
100
AcDbLine
 10
496.5605883548744
 20
-328.6849763154642
 30
0.0
 11
507.5605883548744
 21
-317.6849763154642
 31
0.0
  0
LINE
  5
1AF
330
1F
100
AcDbEntity
  8
刻线
100
AcDbLine
 10
495.5605883548744
 20
-328.6849763154642
 30
0.0
 11
507.5605883548744
 21
-316.6849763154642
 31
0.0
  0
LINE
  5
1B0
330
1F
100
AcDbEntity
  8
刻线
100
AcDbLine
 10
494.5605883548744
 20
-328.6849763154643
 30
0.0
 11
507.5605883548744
 21
-315.6849763154642
 31
0.0
  0
LINE
  5
1B1
330
1F
100
AcDbEntity
  8
刻线
100
AcDbLine
 10
493.5605883548744
 20
-328.6849763154642
 30
0.0
 11
507.5605883548744
 21
-314.6849763154642
 31
0.0
  0
LINE
  5
1B2
330
1F
100
AcDbEntity
  8
刻线
100
AcDbLine
 10
492.5605883548745
 20
-328.6849763154643
 30
0.0
 11
507.5605883548744
 21
-313.6849763154642
 31
0.0
  0
LINE
  5
1B3
330
1F
100
AcDbEntity
  8
刻线
100
AcDbLine
 10
492.5605883548745
 20
-327.6849763154642
 30
0.0
 11
507.5605883548744
 21
-312.6849763154643
 31
0.0
  0
LINE
  5
1B4
330
1F
100
AcDbEntity
  8
刻线
100
AcDbLine
 10
492.5605883548745
 20
-326.6849763154642
 30
0.0
 11
507.5605883548744
 21
-311.6849763154642
 31
0.0
  0
LINE
  5
1B5
330
1F
100
AcDbEntity
  8
刻线
100
AcDbLine
 10
492.5605883548745
 20
-325.6849763154642
 30
0.0
 11
507.5605883548744
 21
-310.6849763154642
 31
0.0
  0
LINE
  5
1B6
330
1F
100
AcDbEntity
  8
刻线
100
AcDbLine
 10
492.5605883548745
 20
-324.6849763154642
 30
0.0
 11
507.5605883548744
 21
-309.6849763154642
 31
0.0
  0
LINE
  5
1B7
330
1F
100
AcDbEntity
  8
刻线
100
AcDbLine
 10
492.5605883548745
 20
-323.6849763154643
 30
0.0
 11
507.5605883548744
 21
-308.6849763154643
 31
0.0
  0
LINE
  5
1B8
330
1F
100
AcDbEntity
  8
刻线
100
AcDbLine
 10
492.5605883548745
 20
-322.6849763154642
 30
0.0
 11
507.5605883548744
 21
-307.6849763154642
 31
0.0
  0
LINE
  5
1B9
330
1F
100
AcDbEntity
  8
刻线
100
AcDbLine
 10
492.5605883548745
 20
-321.6849763154642
 30
0.0
 11
507.5605883548744
 21
-306.6849763154642
 31
0.0
  0
LINE
  5
1BA
330
1F
100
AcDbEntity
  8
刻线
100
AcDbLine
 10
492.5605883548745
 20
-320.6849763154642
 30
0.0
 11
507.5605883548744
 21
-305.6849763154642
 31
0.0
  0
LINE
  5
1BB
330
1F
100
AcDbEntity
  8
刻线
100
AcDbLine
 10
492.5605883548745
 20
-319.6849763154642
 30
0.0
 11
507.5605883548744
 21
-304.6849763154642
 31
0.0
  0
LINE
  5
1BC
330
1F
100
AcDbEntity
  8
刻线
100
AcDbLine
 10
492.5605883548745
 20
-318.6849763154643
 30
0.0
 11
507.5605883548744
 21
-303.6849763154643
 31
0.0
  0
LINE
  5
1BD
330
1F
100
AcDbEntity
  8
刻线
100
AcDbLine
 10
492.5605883548745
 20
-317.6849763154642
 30
0.0
 11
507.5605883548744
 21
-302.6849763154642
 31
0.0
  0
LINE
  5
1BE
330
1F
100
AcDbEntity
  8
刻线
100
AcDbLine
 10
492.5605883548745
 20
-316.6849763154642
 30
0.0
 11
507.5605883548744
 21
-301.6849763154642
 31
0.0
  0
LINE
  5
1BF
330
1F
100
AcDbEntity
  8
刻线
100
AcDbLine
 10
492.5605883548745
 20
-315.6849763154642
 30
0.0
 11
507.5605883548744
 21
-300.6849763154642
 31
0.0
  0
LINE
  5
1C0
330
1F
100
AcDbEntity
  8
刻线
100
AcDbLine
 10
492.5605883548745
 20
-314.6849763154642
 30
0.0
 11
507.5605883548744
 21
-299.6849763154642
 31
0.0
  0
LINE
  5
1C1
330
1F
100
AcDbEntity
  8
刻线
100
AcDbLine
 10
492.5605883548745
 20
-313.6849763154643
 30
0.0
 11
507.5605883548744
 21
-298.6849763154642
 31
0.0
  0
LINE
  5
1C2
330
1F
100
AcDbEntity
  8
刻线
100
AcDbLine
 10
492.5605883548745
 20
-312.6849763154642
 30
0.0
 11
507.5605883548744
 21
-297.6849763154642
 31
0.0
  0
LINE
  5
1C3
330
1F
100
AcDbEntity
  8
刻线
100
AcDbLine
 10
492.5605883548745
 20
-311.6849763154642
 30
0.0
 11
507.5605883548744
 21
-296.6849763154642
 31
0.0
  0
LINE
  5
1C4
330
1F
100
AcDbEntity
  8
刻线
100
AcDbLine
 10
506.5605883548744
 20
-328.6849763154642
 30
0.0
 11
507.5605883548744
 21
-327.6849763154642
 31
0.0
  0
LINE
  5
1C5
330
1F
100
AcDbEntity
  8
刻线
100
AcDbLine
 10
505.5605883548744
 20
-328.6849763154642
 30
0.0
 11
507.5605883548745
 21
-326.6849763154643
 31
0.0
  0
LINE
  5
1C6
330
1F
100
AcDbEntity
  8
刻线
100
AcDbLine
 10
504.5605883548744
 20
-328.6849763154642
 30
0.0
 11
507.5605883548744
 21
-325.6849763154642
 31
0.0
  0
LINE
  5
1C7
330
1F
100
AcDbEntity
  8
刻线
100
AcDbLine
 10
503.5605883548744
 20
-328.6849763154642
 30
0.0
 11
507.5605883548744
 21
-324.6849763154642
 31
0.0
  0
LINE
  5
1C8
330
1F
100
AcDbEntity
  8
刻线
100
AcDbLine
 10
502.5605883548745
 20
-328.6849763154642
 30
0.0
 11
507.5605883548744
 21
-323.6849763154642
 31
0.0
  0
LINE
  5
1C9
330
1F
100
AcDbEntity
  8
刻线
100
AcDbLine
 10
501.5605883548745
 20
-328.6849763154642
 30
0.0
 11
507.5605883548744
 21
-322.6849763154642
 31
0.0
  0
LINE
  5
1CA
330
1F
100
AcDbEntity
  8
刻线
100
AcDbLine
 10
500.5605883548744
 20
-328.6849763154642
 30
0.0
 11
507.5605883548744
 21
-321.6849763154642
 31
0.0
  0
LINE
  5
1CB
330
1F
100
AcDbEntity
  8
刻线
100
AcDbLine
 10
492.5605883548745
 20
-310.6849763154642
 30
0.0
 11
507.5605883548744
 21
-295.6849763154642
 31
0.0
  0
LINE
  5
1CC
330
1F
100
AcDbEntity
  8
刻线
100
AcDbLine
 10
492.5605883548745
 20
-309.6849763154642
 30
0.0
 11
506.5605883548744
 21
-295.6849763154642
 31
0.0
  0
LINE
  5
1CD
330
1F
100
AcDbEntity
  8
刻线
100
AcDbLine
 10
492.5605883548745
 20
-308.6849763154643
 30
0.0
 11
505.5605883548745
 21
-295.6849763154642
 31
0.0
  0
LINE
  5
1CE
330
1F
100
AcDbEntity
  8
刻线
100
AcDbLine
 10
492.5605883548745
 20
-307.6849763154642
 30
0.0
 11
504.5605883548744
 21
-295.6849763154642
 31
0.0
  0
LINE
  5
1CF
330
1F
100
AcDbEntity
  8
刻线
100
AcDbLine
 10
492.5605883548745
 20
-306.6849763154642
 30
0.0
 11
503.5605883548744
 21
-295.6849763154642
 31
0.0
  0
LINE
  5
1D0
330
1F
100
AcDbEntity
  8
刻线
100
AcDbLine
 10
492.5605883548745
 20
-305.6849763154642
 30
0.0
 11
502.5605883548745
 21
-295.6849763154642
 31
0.0
  0
LINE
  5
1D1
330
1F
100
AcDbEntity
  8
刻线
100
AcDbLine
 10
492.5605883548745
 20
-304.6849763154642
 30
0.0
 11
501.5605883548745
 21
-295.6849763154642
 31
0.0
  0
LINE
  5
1D2
330
1F
100
AcDbEntity
  8
刻线
100
AcDbLine
 10
492.5605883548745
 20
-303.6849763154643
 30
0.0
 11
500.5605883548745
 21
-295.6849763154643
 31
0.0
  0
LINE
  5
1D3
330
1F
100
AcDbEntity
  8
刻线
100
AcDbLine
 10
492.5605883548745
 20
-302.6849763154642
 30
0.0
 11
499.5605883548745
 21
-295.6849763154642
 31
0.0
  0
LINE
  5
1D4
330
1F
100
AcDbEntity
  8
刻线
100
AcDbLine
 10
492.5605883548745
 20
-301.6849763154642
 30
0.0
 11
498.5605883548745
 21
-295.6849763154642
 31
0.0
  0
LINE
  5
1D5
330
1F
100
AcDbEntity
  8
刻线
100
AcDbLine
 10
492.5605883548745
 20
-300.6849763154642
 30
0.0
 11
497.5605883548744
 21
-295.6849763154642
 31
0.0
  0
LINE
  5
1D6
330
1F
100
AcDbEntity
  8
刻线
100
AcDbLine
 10
492.5605883548745
 20
-299.6849763154642
 30
0.0
 11
496.5605883548745
 21
-295.6849763154642
 31
0.0
  0
LINE
  5
1D7
330
1F
100
AcDbEntity
  8
刻线
100
AcDbLine
 10
492.5605883548745
 20
-298.6849763154643
 30
0.0
 11
495.5605883548745
 21
-295.6849763154642
 31
0.0
  0
LINE
  5
1D8
330
1F
100
AcDbEntity
  8
刻线
100
AcDbLine
 10
492.5605883548745
 20
-297.6849763154642
 30
0.0
 11
494.5605883548745
 21
-295.6849763154643
 31
0.0
  0
LINE
  5
1D9
330
1F
100
AcDbEntity
  8
刻线
100
AcDbLine
 10
492.5605883548745
 20
-296.6849763154642
 30
0.0
 11
493.5605883548745
 21
-295.6849763154642
 31
0.0
  0
LINE
  5
1DA
330
1F
100
AcDbEntity
  8
刻线
100
AcDbLine
 10
472.5605883548745
 20
-296.6849763154642
 30
0.0
 11
473.5605883548745
 21
-295.6849763154642
 31
0.0
  0
LINE
  5
1DB
330
1F
100
AcDbEntity
  8
刻线
100
AcDbLine
 10
472.5605883548745
 20
-297.6849763154642
 30
0.0
 11
474.5605883548745
 21
-295.6849763154643
 31
0.0
  0
LINE
  5
1DC
330
1F
100
AcDbEntity
  8
刻线
100
AcDbLine
 10
472.5605883548745
 20
-298.6849763154643
 30
0.0
 11
475.5605883548745
 21
-295.6849763154642
 31
0.0
  0
LINE
  5
1DD
330
1F
100
AcDbEntity
  8
刻线
100
AcDbLine
 10
472.5605883548745
 20
-299.6849763154642
 30
0.0
 11
476.5605883548745
 21
-295.6849763154642
 31
0.0
  0
LINE
  5
1DE
330
1F
100
AcDbEntity
  8
刻线
100
AcDbLine
 10
472.5605883548745
 20
-300.6849763154642
 30
0.0
 11
477.5605883548744
 21
-295.6849763154642
 31
0.0
  0
LINE
  5
1DF
330
1F
100
AcDbEntity
  8
刻线
100
AcDbLine
 10
472.5605883548745
 20
-301.6849763154642
 30
0.0
 11
478.5605883548745
 21
-295.6849763154642
 31
0.0
  0
LINE
  5
1E0
330
1F
100
AcDbEntity
  8
刻线
100
AcDbLine
 10
472.5605883548745
 20
-302.6849763154642
 30
0.0
 11
479.5605883548745
 21
-295.6849763154642
 31
0.0
  0
LINE
  5
1E1
330
1F
100
AcDbEntity
  8
刻线
100
AcDbLine
 10
472.5605883548745
 20
-303.6849763154643
 30
0.0
 11
480.5605883548745
 21
-295.6849763154643
 31
0.0
  0
LINE
  5
1E2
330
1F
100
AcDbEntity
  8
刻线
100
AcDbLine
 10
472.5605883548745
 20
-304.6849763154642
 30
0.0
 11
481.5605883548745
 21
-295.6849763154642
 31
0.0
  0
LINE
  5
1E3
330
1F
100
AcDbEntity
  8
刻线
100
AcDbLine
 10
472.5605883548745
 20
-305.6849763154642
 30
0.0
 11
482.5605883548745
 21
-295.6849763154642
 31
0.0
  0
LINE
  5
1E4
330
1F
100
AcDbEntity
  8
刻线
100
AcDbLine
 10
472.5605883548745
 20
-306.6849763154642
 30
0.0
 11
483.5605883548744
 21
-295.6849763154642
 31
0.0
  0
LINE
  5
1E5
330
1F
100
AcDbEntity
  8
刻线
100
AcDbLine
 10
472.5605883548745
 20
-307.6849763154642
 30
0.0
 11
484.5605883548744
 21
-295.6849763154642
 31
0.0
  0
LINE
  5
1E6
330
1F
100
AcDbEntity
  8
刻线
100
AcDbLine
 10
472.5605883548745
 20
-308.6849763154643
 30
0.0
 11
485.5605883548745
 21
-295.6849763154642
 31
0.0
  0
LINE
  5
1E7
330
1F
100
AcDbEntity
  8
刻线
100
AcDbLine
 10
472.5605883548745
 20
-309.6849763154642
 30
0.0
 11
486.5605883548744
 21
-295.6849763154642
 31
0.0
  0
LINE
  5
1E8
330
1F
100
AcDbEntity
  8
刻线
100
AcDbLine
 10
472.5605883548745
 20
-310.6849763154642
 30
0.0
 11
487.5605883548744
 21
-295.6849763154642
 31
0.0
  0
LINE
  5
1E9
330
1F
100
AcDbEntity
  8
刻线
100
AcDbLine
 10
480.5605883548744
 20
-328.6849763154642
 30
0.0
 11
487.5605883548744
 21
-321.6849763154642
 31
0.0
  0
LINE
  5
1EA
330
1F
100
AcDbEntity
  8
刻线
100
AcDbLine
 10
481.5605883548745
 20
-328.6849763154642
 30
0.0
 11
487.5605883548744
 21
-322.6849763154642
 31
0.0
  0
LINE
  5
1EB
330
1F
100
AcDbEntity
  8
刻线
100
AcDbLine
 10
482.5605883548745
 20
-328.6849763154642
 30
0.0
 11
487.5605883548744
 21
-323.6849763154642
 31
0.0
  0
LINE
  5
1EC
330
1F
100
AcDbEntity
  8
刻线
100
AcDbLine
 10
483.5605883548744
 20
-328.6849763154642
 30
0.0
 11
487.5605883548744
 21
-324.6849763154642
 31
0.0
  0
LINE
  5
1ED
330
1F
100
AcDbEntity
  8
刻线
100
AcDbLine
 10
484.5605883548744
 20
-328.6849763154642
 30
0.0
 11
487.5605883548744
 21
-325.6849763154642
 31
0.0
  0
LINE
  5
1EE
330
1F
100
AcDbEntity
  8
刻线
100
AcDbLine
 10
485.5605883548744
 20
-328.6849763154642
 30
0.0
 11
487.5605883548745
 21
-326.6849763154643
 31
0.0
  0
LINE
  5
1EF
330
1F
100
AcDbEntity
  8
刻线
100
AcDbLine
 10
486.5605883548744
 20
-328.6849763154642
 30
0.0
 11
487.5605883548744
 21
-327.6849763154642
 31
0.0
  0
LINE
  5
1F0
330
1F
100
AcDbEntity
  8
刻线
100
AcDbLine
 10
472.5605883548745
 20
-311.6849763154642
 30
0.0
 11
487.5605883548744
 21
-296.6849763154642
 31
0.0
  0
LINE
  5
1F1
330
1F
100
AcDbEntity
  8
刻线
100
AcDbLine
 10
472.5605883548745
 20
-312.6849763154642
 30
0.0
 11
487.5605883548744
 21
-297.6849763154642
 31
0.0
  0
LINE
  5
1F2
330
1F
100
AcDbEntity
  8
刻线
100
AcDbLine
 10
472.5605883548745
 20
-313.6849763154643
 30
0.0
 11
487.5605883548744
 21
-298.6849763154642
 31
0.0
  0
LINE
  5
1F3
330
1F
100
AcDbEntity
  8
刻线
100
AcDbLine
 10
472.5605883548745
 20
-314.6849763154642
 30
0.0
 11
487.5605883548744
 21
-299.6849763154642
 31
0.0
  0
LINE
  5
1F4
330
1F
100
AcDbEntity
  8
刻线
100
AcDbLine
 10
472.5605883548745
 20
-315.6849763154642
 30
0.0
 11
487.5605883548744
 21
-300.6849763154642
 31
0.0
  0
LINE
  5
1F5
330
1F
100
AcDbEntity
  8
刻线
100
AcDbLine
 10
472.5605883548745
 20
-316.6849763154642
 30
0.0
 11
487.5605883548744
 21
-301.6849763154642
 31
0.0
  0
LINE
  5
1F6
330
1F
100
AcDbEntity
  8
刻线
100
AcDbLine
 10
472.5605883548745
 20
-317.6849763154642
 30
0.0
 11
487.5605883548744
 21
-302.6849763154642
 31
0.0
  0
LINE
  5
1F7
330
1F
100
AcDbEntity
  8
刻线
100
AcDbLine
 10
472.5605883548745
 20
-318.6849763154643
 30
0.0
 11
487.5605883548744
 21
-303.6849763154643
 31
0.0
  0
LINE
  5
1F8
330
1F
100
AcDbEntity
  8
刻线
100
AcDbLine
 10
472.5605883548745
 20
-319.6849763154642
 30
0.0
 11
487.5605883548744
 21
-304.6849763154642
 31
0.0
  0
LINE
  5
1F9
330
1F
100
AcDbEntity
  8
刻线
100
AcDbLine
 10
472.5605883548745
 20
-320.6849763154642
 30
0.0
 11
487.5605883548744
 21
-305.6849763154642
 31
0.0
  0
LINE
  5
1FA
330
1F
100
AcDbEntity
  8
刻线
100
AcDbLine
 10
472.5605883548745
 20
-321.6849763154642
 30
0.0
 11
487.5605883548744
 21
-306.6849763154642
 31
0.0
  0
LINE
  5
1FB
330
1F
100
AcDbEntity
  8
刻线
100
AcDbLine
 10
472.5605883548745
 20
-322.6849763154642
 30
0.0
 11
487.5605883548744
 21
-307.6849763154642
 31
0.0
  0
LINE
  5
1FC
330
1F
100
AcDbEntity
  8
刻线
100
AcDbLine
 10
472.5605883548745
 20
-323.6849763154643
 30
0.0
 11
487.5605883548744
 21
-308.6849763154643
 31
0.0
  0
LINE
  5
1FD
330
1F
100
AcDbEntity
  8
刻线
100
AcDbLine
 10
472.5605883548745
 20
-324.6849763154642
 30
0.0
 11
487.5605883548744
 21
-309.6849763154642
 31
0.0
  0
LINE
  5
1FE
330
1F
100
AcDbEntity
  8
刻线
100
AcDbLine
 10
472.5605883548745
 20
-325.6849763154642
 30
0.0
 11
487.5605883548744
 21
-310.6849763154642
 31
0.0
  0
LINE
  5
1FF
330
1F
100
AcDbEntity
  8
刻线
100
AcDbLine
 10
472.5605883548745
 20
-326.6849763154642
 30
0.0
 11
487.5605883548744
 21
-311.6849763154642
 31
0.0
  0
LINE
  5
200
330
1F
100
AcDbEntity
  8
刻线
100
AcDbLine
 10
472.5605883548745
 20
-327.6849763154642
 30
0.0
 11
487.5605883548744
 21
-312.6849763154643
 31
0.0
  0
LINE
  5
201
330
1F
100
AcDbEntity
  8
刻线
100
AcDbLine
 10
472.5605883548745
 20
-328.6849763154643
 30
0.0
 11
487.5605883548744
 21
-313.6849763154642
 31
0.0
  0
LINE
  5
202
330
1F
100
AcDbEntity
  8
刻线
100
AcDbLine
 10
473.5605883548744
 20
-328.6849763154642
 30
0.0
 11
487.5605883548744
 21
-314.6849763154642
 31
0.0
  0
LINE
  5
203
330
1F
100
AcDbEntity
  8
刻线
100
AcDbLine
 10
474.5605883548744
 20
-328.6849763154643
 30
0.0
 11
487.5605883548744
 21
-315.6849763154642
 31
0.0
  0
LINE
  5
204
330
1F
100
AcDbEntity
  8
刻线
100
AcDbLine
 10
475.5605883548744
 20
-328.6849763154642
 30
0.0
 11
487.5605883548744
 21
-316.6849763154642
 31
0.0
  0
LINE
  5
205
330
1F
100
AcDbEntity
  8
刻线
100
AcDbLine
 10
476.5605883548744
 20
-328.6849763154642
 30
0.0
 11
487.5605883548744
 21
-317.6849763154642
 31
0.0
  0
LINE
  5
206
330
1F
100
AcDbEntity
  8
刻线
100
AcDbLine
 10
477.5605883548744
 20
-328.6849763154642
 30
0.0
 11
487.5605883548744
 21
-318.6849763154642
 31
0.0
  0
LINE
  5
207
330
1F
100
AcDbEntity
  8
刻线
100
AcDbLine
 10
478.5605883548744
 20
-328.6849763154642
 30
0.0
 11
487.5605883548744
 21
-319.6849763154642
 31
0.0
  0
LINE
  5
208
330
1F
100
AcDbEntity
  8
刻线
100
AcDbLine
 10
479.5605883548745
 20
-328.6849763154642
 30
0.0
 11
487.5605883548744
 21
-320.6849763154643
 31
0.0
  0
LINE
  5
209
330
1F
100
AcDbEntity
  8
刻线
100
AcDbLine
 10
472.5605883548744
 20
-295.6849763154642
 30
0.0
 11
472.5605883548744
 21
-328.6849763154642
 31
0.0
  0
LINE
  5
20A
330
1F
100
AcDbEntity
  8
刻线
100
AcDbLine
 10
487.5605883548744
 20
-328.6849763154642
 30
0.0
 11
487.5605883548744
 21
-295.6849763154642
 31
0.0
  0
LINE
  5
20B
330
1F
100
AcDbEntity
  8
刻线
100
AcDbLine
 10
472.5605883548744
 20
-328.6849763154642
 30
0.0
 11
487.5605883548744
 21
-328.6849763154642
 31
0.0
  0
LINE
  5
20C
330
1F
100
AcDbEntity
  8
刻线
100
AcDbLine
 10
432.5605883548745
 20
-296.6849763154642
 30
0.0
 11
433.5605883548745
 21
-295.6849763154642
 31
0.0
  0
LINE
  5
20D
330
1F
100
AcDbEntity
  8
刻线
100
AcDbLine
 10
432.5605883548745
 20
-297.6849763154642
 30
0.0
 11
434.5605883548745
 21
-295.6849763154643
 31
0.0
  0
LINE
  5
20E
330
1F
100
AcDbEntity
  8
刻线
100
AcDbLine
 10
432.5605883548745
 20
-298.6849763154643
 30
0.0
 11
435.5605883548745
 21
-295.6849763154642
 31
0.0
  0
LINE
  5
20F
330
1F
100
AcDbEntity
  8
刻线
100
AcDbLine
 10
432.5605883548745
 20
-299.6849763154642
 30
0.0
 11
436.5605883548745
 21
-295.6849763154642
 31
0.0
  0
LINE
  5
210
330
1F
100
AcDbEntity
  8
刻线
100
AcDbLine
 10
432.5605883548745
 20
-300.6849763154642
 30
0.0
 11
437.5605883548744
 21
-295.6849763154642
 31
0.0
  0
LINE
  5
211
330
1F
100
AcDbEntity
  8
刻线
100
AcDbLine
 10
432.5605883548745
 20
-301.6849763154642
 30
0.0
 11
438.5605883548745
 21
-295.6849763154642
 31
0.0
  0
LINE
  5
212
330
1F
100
AcDbEntity
  8
刻线
100
AcDbLine
 10
432.5605883548745
 20
-302.6849763154642
 30
0.0
 11
439.5605883548745
 21
-295.6849763154642
 31
0.0
  0
LINE
  5
213
330
1F
100
AcDbEntity
  8
刻线
100
AcDbLine
 10
432.5605883548745
 20
-303.6849763154643
 30
0.0
 11
440.5605883548745
 21
-295.6849763154643
 31
0.0
  0
LINE
  5
214
330
1F
100
AcDbEntity
  8
刻线
100
AcDbLine
 10
432.5605883548745
 20
-304.6849763154642
 30
0.0
 11
441.5605883548745
 21
-295.6849763154642
 31
0.0
  0
LINE
  5
215
330
1F
100
AcDbEntity
  8
刻线
100
AcDbLine
 10
432.5605883548745
 20
-305.6849763154642
 30
0.0
 11
442.5605883548745
 21
-295.6849763154642
 31
0.0
  0
LINE
  5
216
330
1F
100
AcDbEntity
  8
刻线
100
AcDbLine
 10
432.5605883548745
 20
-306.6849763154642
 30
0.0
 11
443.5605883548744
 21
-295.6849763154642
 31
0.0
  0
LINE
  5
217
330
1F
100
AcDbEntity
  8
刻线
100
AcDbLine
 10
432.5605883548745
 20
-307.6849763154642
 30
0.0
 11
444.5605883548744
 21
-295.6849763154642
 31
0.0
  0
LINE
  5
218
330
1F
100
AcDbEntity
  8
刻线
100
AcDbLine
 10
432.5605883548745
 20
-308.6849763154643
 30
0.0
 11
445.5605883548745
 21
-295.6849763154642
 31
0.0
  0
LINE
  5
219
330
1F
100
AcDbEntity
  8
刻线
100
AcDbLine
 10
432.5605883548745
 20
-309.6849763154642
 30
0.0
 11
446.5605883548744
 21
-295.6849763154642
 31
0.0
  0
LINE
  5
21A
330
1F
100
AcDbEntity
  8
刻线
100
AcDbLine
 10
432.5605883548745
 20
-310.6849763154642
 30
0.0
 11
447.5605883548744
 21
-295.6849763154642
 31
0.0
  0
LINE
  5
21B
330
1F
100
AcDbEntity
  8
刻线
100
AcDbLine
 10
440.5605883548744
 20
-328.6849763154642
 30
0.0
 11
447.5605883548744
 21
-321.6849763154642
 31
0.0
  0
LINE
  5
21C
330
1F
100
AcDbEntity
  8
刻线
100
AcDbLine
 10
441.5605883548745
 20
-328.6849763154642
 30
0.0
 11
447.5605883548744
 21
-322.6849763154642
 31
0.0
  0
LINE
  5
21D
330
1F
100
AcDbEntity
  8
刻线
100
AcDbLine
 10
442.5605883548745
 20
-328.6849763154642
 30
0.0
 11
447.5605883548744
 21
-323.6849763154642
 31
0.0
  0
LINE
  5
21E
330
1F
100
AcDbEntity
  8
刻线
100
AcDbLine
 10
443.5605883548744
 20
-328.6849763154642
 30
0.0
 11
447.5605883548744
 21
-324.6849763154642
 31
0.0
  0
LINE
  5
21F
330
1F
100
AcDbEntity
  8
刻线
100
AcDbLine
 10
444.5605883548744
 20
-328.6849763154642
 30
0.0
 11
447.5605883548744
 21
-325.6849763154642
 31
0.0
  0
LINE
  5
220
330
1F
100
AcDbEntity
  8
刻线
100
AcDbLine
 10
445.5605883548744
 20
-328.6849763154642
 30
0.0
 11
447.5605883548745
 21
-326.6849763154643
 31
0.0
  0
LINE
  5
221
330
1F
100
AcDbEntity
  8
刻线
100
AcDbLine
 10
446.5605883548744
 20
-328.6849763154642
 30
0.0
 11
447.5605883548744
 21
-327.6849763154642
 31
0.0
  0
LINE
  5
222
330
1F
100
AcDbEntity
  8
刻线
100
AcDbLine
 10
432.5605883548745
 20
-311.6849763154642
 30
0.0
 11
447.5605883548744
 21
-296.6849763154642
 31
0.0
  0
LINE
  5
223
330
1F
100
AcDbEntity
  8
刻线
100
AcDbLine
 10
432.5605883548745
 20
-312.6849763154642
 30
0.0
 11
447.5605883548744
 21
-297.6849763154642
 31
0.0
  0
LINE
  5
224
330
1F
100
AcDbEntity
  8
刻线
100
AcDbLine
 10
432.5605883548745
 20
-313.6849763154643
 30
0.0
 11
447.5605883548744
 21
-298.6849763154642
 31
0.0
  0
LINE
  5
225
330
1F
100
AcDbEntity
  8
刻线
100
AcDbLine
 10
432.5605883548745
 20
-314.6849763154642
 30
0.0
 11
447.5605883548744
 21
-299.6849763154642
 31
0.0
  0
LINE
  5
226
330
1F
100
AcDbEntity
  8
刻线
100
AcDbLine
 10
432.5605883548745
 20
-315.6849763154642
 30
0.0
 11
447.5605883548744
 21
-300.6849763154642
 31
0.0
  0
LINE
  5
227
330
1F
100
AcDbEntity
  8
刻线
100
AcDbLine
 10
432.5605883548745
 20
-316.6849763154642
 30
0.0
 11
447.5605883548744
 21
-301.6849763154642
 31
0.0
  0
LINE
  5
228
330
1F
100
AcDbEntity
  8
刻线
100
AcDbLine
 10
432.5605883548745
 20
-317.6849763154642
 30
0.0
 11
447.5605883548744
 21
-302.6849763154642
 31
0.0
  0
LINE
  5
229
330
1F
100
AcDbEntity
  8
刻线
100
AcDbLine
 10
432.5605883548745
 20
-318.6849763154643
 30
0.0
 11
447.5605883548744
 21
-303.6849763154643
 31
0.0
  0
LINE
  5
22A
330
1F
100
AcDbEntity
  8
刻线
100
AcDbLine
 10
432.5605883548745
 20
-319.6849763154642
 30
0.0
 11
447.5605883548744
 21
-304.6849763154642
 31
0.0
  0
LINE
  5
22B
330
1F
100
AcDbEntity
  8
刻线
100
AcDbLine
 10
432.5605883548745
 20
-320.6849763154642
 30
0.0
 11
447.5605883548744
 21
-305.6849763154642
 31
0.0
  0
LINE
  5
22C
330
1F
100
AcDbEntity
  8
刻线
100
AcDbLine
 10
432.5605883548745
 20
-321.6849763154642
 30
0.0
 11
447.5605883548744
 21
-306.6849763154642
 31
0.0
  0
LINE
  5
22D
330
1F
100
AcDbEntity
  8
刻线
100
AcDbLine
 10
432.5605883548745
 20
-322.6849763154642
 30
0.0
 11
447.5605883548744
 21
-307.6849763154642
 31
0.0
  0
LINE
  5
22E
330
1F
100
AcDbEntity
  8
刻线
100
AcDbLine
 10
432.5605883548745
 20
-323.6849763154643
 30
0.0
 11
447.5605883548744
 21
-308.6849763154643
 31
0.0
  0
LINE
  5
22F
330
1F
100
AcDbEntity
  8
刻线
100
AcDbLine
 10
432.5605883548745
 20
-324.6849763154642
 30
0.0
 11
447.5605883548744
 21
-309.6849763154642
 31
0.0
  0
LINE
  5
230
330
1F
100
AcDbEntity
  8
刻线
100
AcDbLine
 10
432.5605883548745
 20
-325.6849763154642
 30
0.0
 11
447.5605883548744
 21
-310.6849763154642
 31
0.0
  0
LINE
  5
231
330
1F
100
AcDbEntity
  8
刻线
100
AcDbLine
 10
432.5605883548745
 20
-326.6849763154642
 30
0.0
 11
447.5605883548744
 21
-311.6849763154642
 31
0.0
  0
LINE
  5
232
330
1F
100
AcDbEntity
  8
刻线
100
AcDbLine
 10
432.5605883548745
 20
-327.6849763154642
 30
0.0
 11
447.5605883548744
 21
-312.6849763154643
 31
0.0
  0
LINE
  5
233
330
1F
100
AcDbEntity
  8
刻线
100
AcDbLine
 10
432.5605883548745
 20
-328.6849763154643
 30
0.0
 11
447.5605883548744
 21
-313.6849763154642
 31
0.0
  0
LINE
  5
234
330
1F
100
AcDbEntity
  8
刻线
100
AcDbLine
 10
433.5605883548744
 20
-328.6849763154642
 30
0.0
 11
447.5605883548744
 21
-314.6849763154642
 31
0.0
  0
LINE
  5
235
330
1F
100
AcDbEntity
  8
刻线
100
AcDbLine
 10
434.5605883548744
 20
-328.6849763154643
 30
0.0
 11
447.5605883548744
 21
-315.6849763154642
 31
0.0
  0
LINE
  5
236
330
1F
100
AcDbEntity
  8
刻线
100
AcDbLine
 10
435.5605883548744
 20
-328.6849763154642
 30
0.0
 11
447.5605883548744
 21
-316.6849763154642
 31
0.0
  0
LINE
  5
237
330
1F
100
AcDbEntity
  8
刻线
100
AcDbLine
 10
436.5605883548744
 20
-328.6849763154642
 30
0.0
 11
447.5605883548744
 21
-317.6849763154642
 31
0.0
  0
LINE
  5
238
330
1F
100
AcDbEntity
  8
刻线
100
AcDbLine
 10
437.5605883548744
 20
-328.6849763154642
 30
0.0
 11
447.5605883548744
 21
-318.6849763154642
 31
0.0
  0
LINE
  5
239
330
1F
100
AcDbEntity
  8
刻线
100
AcDbLine
 10
438.5605883548744
 20
-328.6849763154642
 30
0.0
 11
447.5605883548744
 21
-319.6849763154642
 31
0.0
  0
LINE
  5
23A
330
1F
100
AcDbEntity
  8
刻线
100
AcDbLine
 10
439.5605883548745
 20
-328.6849763154642
 30
0.0
 11
447.5605883548744
 21
-320.6849763154643
 31
0.0
  0
LINE
  5
23B
330
1F
100
AcDbEntity
  8
刻线
100
AcDbLine
 10
432.5605883548744
 20
-295.6849763154642
 30
0.0
 11
432.5605883548744
 21
-328.6849763154642
 31
0.0
  0
LINE
  5
23C
330
1F
100
AcDbEntity
  8
刻线
100
AcDbLine
 10
447.5605883548744
 20
-328.6849763154642
 30
0.0
 11
447.5605883548744
 21
-295.6849763154642
 31
0.0
  0
LINE
  5
23D
330
1F
100
AcDbEntity
  8
刻线
100
AcDbLine
 10
432.5605883548744
 20
-328.6849763154642
 30
0.0
 11
447.5605883548744
 21
-328.6849763154642
 31
0.0
  0
LINE
  5
23E
330
1F
100
AcDbEntity
  8
刻线
100
AcDbLine
 10
412.5605883548744
 20
-328.6849763154642
 30
0.0
 11
427.5605883548744
 21
-328.6849763154642
 31
0.0
  0
LINE
  5
23F
330
1F
100
AcDbEntity
  8
刻线
100
AcDbLine
 10
427.5605883548744
 20
-328.6849763154642
 30
0.0
 11
427.5605883548744
 21
-295.6849763154642
 31
0.0
  0
LINE
  5
240
330
1F
100
AcDbEntity
  8
刻线
100
AcDbLine
 10
412.5605883548744
 20
-295.6849763154642
 30
0.0
 11
412.5605883548744
 21
-328.6849763154642
 31
0.0
  0
LINE
  5
241
330
1F
100
AcDbEntity
  8
刻线
100
AcDbLine
 10
419.5605883548745
 20
-328.6849763154642
 30
0.0
 11
427.5605883548744
 21
-320.6849763154643
 31
0.0
  0
LINE
  5
242
330
1F
100
AcDbEntity
  8
刻线
100
AcDbLine
 10
418.5605883548744
 20
-328.6849763154642
 30
0.0
 11
427.5605883548744
 21
-319.6849763154642
 31
0.0
  0
LINE
  5
243
330
1F
100
AcDbEntity
  8
刻线
100
AcDbLine
 10
417.5605883548744
 20
-328.6849763154642
 30
0.0
 11
427.5605883548744
 21
-318.6849763154642
 31
0.0
  0
LINE
  5
244
330
1F
100
AcDbEntity
  8
刻线
100
AcDbLine
 10
416.5605883548744
 20
-328.6849763154642
 30
0.0
 11
427.5605883548744
 21
-317.6849763154642
 31
0.0
  0
LINE
  5
245
330
1F
100
AcDbEntity
  8
刻线
100
AcDbLine
 10
415.5605883548744
 20
-328.6849763154642
 30
0.0
 11
427.5605883548744
 21
-316.6849763154642
 31
0.0
  0
LINE
  5
246
330
1F
100
AcDbEntity
  8
刻线
100
AcDbLine
 10
414.5605883548744
 20
-328.6849763154643
 30
0.0
 11
427.5605883548744
 21
-315.6849763154642
 31
0.0
  0
LINE
  5
247
330
1F
100
AcDbEntity
  8
刻线
100
AcDbLine
 10
413.5605883548744
 20
-328.6849763154642
 30
0.0
 11
427.5605883548744
 21
-314.6849763154642
 31
0.0
  0
LINE
  5
248
330
1F
100
AcDbEntity
  8
刻线
100
AcDbLine
 10
412.5605883548745
 20
-328.6849763154643
 30
0.0
 11
427.5605883548744
 21
-313.6849763154642
 31
0.0
  0
LINE
  5
249
330
1F
100
AcDbEntity
  8
刻线
100
AcDbLine
 10
412.5605883548745
 20
-327.6849763154642
 30
0.0
 11
427.5605883548744
 21
-312.6849763154643
 31
0.0
  0
LINE
  5
24A
330
1F
100
AcDbEntity
  8
刻线
100
AcDbLine
 10
412.5605883548745
 20
-326.6849763154642
 30
0.0
 11
427.5605883548744
 21
-311.6849763154642
 31
0.0
  0
LINE
  5
24B
330
1F
100
AcDbEntity
  8
刻线
100
AcDbLine
 10
412.5605883548745
 20
-325.6849763154642
 30
0.0
 11
427.5605883548744
 21
-310.6849763154642
 31
0.0
  0
LINE
  5
24C
330
1F
100
AcDbEntity
  8
刻线
100
AcDbLine
 10
412.5605883548745
 20
-324.6849763154642
 30
0.0
 11
427.5605883548744
 21
-309.6849763154642
 31
0.0
  0
LINE
  5
24D
330
1F
100
AcDbEntity
  8
刻线
100
AcDbLine
 10
412.5605883548745
 20
-323.6849763154643
 30
0.0
 11
427.5605883548744
 21
-308.6849763154643
 31
0.0
  0
LINE
  5
24E
330
1F
100
AcDbEntity
  8
刻线
100
AcDbLine
 10
412.5605883548745
 20
-322.6849763154642
 30
0.0
 11
427.5605883548744
 21
-307.6849763154642
 31
0.0
  0
LINE
  5
24F
330
1F
100
AcDbEntity
  8
刻线
100
AcDbLine
 10
412.5605883548745
 20
-321.6849763154642
 30
0.0
 11
427.5605883548744
 21
-306.6849763154642
 31
0.0
  0
LINE
  5
250
330
1F
100
AcDbEntity
  8
刻线
100
AcDbLine
 10
412.5605883548745
 20
-320.6849763154642
 30
0.0
 11
427.5605883548744
 21
-305.6849763154642
 31
0.0
  0
LINE
  5
251
330
1F
100
AcDbEntity
  8
刻线
100
AcDbLine
 10
412.5605883548745
 20
-319.6849763154642
 30
0.0
 11
427.5605883548744
 21
-304.6849763154642
 31
0.0
  0
LINE
  5
252
330
1F
100
AcDbEntity
  8
刻线
100
AcDbLine
 10
412.5605883548745
 20
-318.6849763154643
 30
0.0
 11
427.5605883548744
 21
-303.6849763154643
 31
0.0
  0
LINE
  5
253
330
1F
100
AcDbEntity
  8
刻线
100
AcDbLine
 10
412.5605883548745
 20
-317.6849763154642
 30
0.0
 11
427.5605883548744
 21
-302.6849763154642
 31
0.0
  0
LINE
  5
254
330
1F
100
AcDbEntity
  8
刻线
100
AcDbLine
 10
412.5605883548745
 20
-316.6849763154642
 30
0.0
 11
427.5605883548744
 21
-301.6849763154642
 31
0.0
  0
LINE
  5
255
330
1F
100
AcDbEntity
  8
刻线
100
AcDbLine
 10
412.5605883548745
 20
-315.6849763154642
 30
0.0
 11
427.5605883548744
 21
-300.6849763154642
 31
0.0
  0
LINE
  5
256
330
1F
100
AcDbEntity
  8
刻线
100
AcDbLine
 10
412.5605883548745
 20
-314.6849763154642
 30
0.0
 11
427.5605883548744
 21
-299.6849763154642
 31
0.0
  0
LINE
  5
257
330
1F
100
AcDbEntity
  8
刻线
100
AcDbLine
 10
412.5605883548745
 20
-313.6849763154643
 30
0.0
 11
427.5605883548744
 21
-298.6849763154642
 31
0.0
  0
LINE
  5
258
330
1F
100
AcDbEntity
  8
刻线
100
AcDbLine
 10
412.5605883548745
 20
-312.6849763154642
 30
0.0
 11
427.5605883548744
 21
-297.6849763154642
 31
0.0
  0
LINE
  5
259
330
1F
100
AcDbEntity
  8
刻线
100
AcDbLine
 10
412.5605883548745
 20
-311.6849763154642
 30
0.0
 11
427.5605883548744
 21
-296.6849763154642
 31
0.0
  0
LINE
  5
25A
330
1F
100
AcDbEntity
  8
刻线
100
AcDbLine
 10
426.5605883548744
 20
-328.6849763154642
 30
0.0
 11
427.5605883548744
 21
-327.6849763154642
 31
0.0
  0
LINE
  5
25B
330
1F
100
AcDbEntity
  8
刻线
100
AcDbLine
 10
425.5605883548744
 20
-328.6849763154642
 30
0.0
 11
427.5605883548745
 21
-326.6849763154643
 31
0.0
  0
LINE
  5
25C
330
1F
100
AcDbEntity
  8
刻线
100
AcDbLine
 10
424.5605883548744
 20
-328.6849763154642
 30
0.0
 11
427.5605883548744
 21
-325.6849763154642
 31
0.0
  0
LINE
  5
25D
330
1F
100
AcDbEntity
  8
刻线
100
AcDbLine
 10
423.5605883548744
 20
-328.6849763154642
 30
0.0
 11
427.5605883548744
 21
-324.6849763154642
 31
0.0
  0
LINE
  5
25E
330
1F
100
AcDbEntity
  8
刻线
100
AcDbLine
 10
422.5605883548745
 20
-328.6849763154642
 30
0.0
 11
427.5605883548744
 21
-323.6849763154642
 31
0.0
  0
LINE
  5
25F
330
1F
100
AcDbEntity
  8
刻线
100
AcDbLine
 10
421.5605883548745
 20
-328.6849763154642
 30
0.0
 11
427.5605883548744
 21
-322.6849763154642
 31
0.0
  0
LINE
  5
260
330
1F
100
AcDbEntity
  8
刻线
100
AcDbLine
 10
420.5605883548744
 20
-328.6849763154642
 30
0.0
 11
427.5605883548744
 21
-321.6849763154642
 31
0.0
  0
LINE
  5
261
330
1F
100
AcDbEntity
  8
刻线
100
AcDbLine
 10
412.5605883548745
 20
-310.6849763154642
 30
0.0
 11
427.5605883548744
 21
-295.6849763154642
 31
0.0
  0
LINE
  5
262
330
1F
100
AcDbEntity
  8
刻线
100
AcDbLine
 10
412.5605883548745
 20
-309.6849763154642
 30
0.0
 11
426.5605883548744
 21
-295.6849763154642
 31
0.0
  0
LINE
  5
263
330
1F
100
AcDbEntity
  8
刻线
100
AcDbLine
 10
412.5605883548745
 20
-308.6849763154643
 30
0.0
 11
425.5605883548745
 21
-295.6849763154642
 31
0.0
  0
LINE
  5
264
330
1F
100
AcDbEntity
  8
刻线
100
AcDbLine
 10
412.5605883548745
 20
-307.6849763154642
 30
0.0
 11
424.5605883548744
 21
-295.6849763154642
 31
0.0
  0
LINE
  5
265
330
1F
100
AcDbEntity
  8
刻线
100
AcDbLine
 10
412.5605883548745
 20
-306.6849763154642
 30
0.0
 11
423.5605883548744
 21
-295.6849763154642
 31
0.0
  0
LINE
  5
266
330
1F
100
AcDbEntity
  8
刻线
100
AcDbLine
 10
412.5605883548745
 20
-305.6849763154642
 30
0.0
 11
422.5605883548745
 21
-295.6849763154642
 31
0.0
  0
LINE
  5
267
330
1F
100
AcDbEntity
  8
刻线
100
AcDbLine
 10
412.5605883548745
 20
-304.6849763154642
 30
0.0
 11
421.5605883548745
 21
-295.6849763154642
 31
0.0
  0
LINE
  5
268
330
1F
100
AcDbEntity
  8
刻线
100
AcDbLine
 10
412.5605883548745
 20
-303.6849763154643
 30
0.0
 11
420.5605883548745
 21
-295.6849763154643
 31
0.0
  0
LINE
  5
269
330
1F
100
AcDbEntity
  8
刻线
100
AcDbLine
 10
412.5605883548745
 20
-302.6849763154642
 30
0.0
 11
419.5605883548745
 21
-295.6849763154642
 31
0.0
  0
LINE
  5
26A
330
1F
100
AcDbEntity
  8
刻线
100
AcDbLine
 10
412.5605883548745
 20
-301.6849763154642
 30
0.0
 11
418.5605883548745
 21
-295.6849763154642
 31
0.0
  0
LINE
  5
26B
330
1F
100
AcDbEntity
  8
刻线
100
AcDbLine
 10
412.5605883548745
 20
-300.6849763154642
 30
0.0
 11
417.5605883548744
 21
-295.6849763154642
 31
0.0
  0
LINE
  5
26C
330
1F
100
AcDbEntity
  8
刻线
100
AcDbLine
 10
412.5605883548745
 20
-299.6849763154642
 30
0.0
 11
416.5605883548745
 21
-295.6849763154642
 31
0.0
  0
LINE
  5
26D
330
1F
100
AcDbEntity
  8
刻线
100
AcDbLine
 10
412.5605883548745
 20
-298.6849763154643
 30
0.0
 11
415.5605883548745
 21
-295.6849763154642
 31
0.0
  0
LINE
  5
26E
330
1F
100
AcDbEntity
  8
刻线
100
AcDbLine
 10
412.5605883548745
 20
-297.6849763154642
 30
0.0
 11
414.5605883548745
 21
-295.6849763154643
 31
0.0
  0
LINE
  5
26F
330
1F
100
AcDbEntity
  8
刻线
100
AcDbLine
 10
412.5605883548745
 20
-296.6849763154642
 30
0.0
 11
413.5605883548745
 21
-295.6849763154642
 31
0.0
  0
LINE
  5
270
330
1F
100
AcDbEntity
  8
刻线
100
AcDbLine
 10
400.0605883548745
 20
-328.6849763154642
 30
-20.8342636970786
 11
400.0605883548745
 21
-361.6849763154642
 31
-20.8342636970786
  0
LINE
  5
271
330
1F
100
AcDbEntity
  8
刻线
100
AcDbLine
 10
392.5605883548745
 20
-296.6849763154642
 30
0.0
 11
393.5605883548745
 21
-295.6849763154642
 31
0.0
  0
LINE
  5
272
330
1F
100
AcDbEntity
  8
刻线
100
AcDbLine
 10
392.5605883548745
 20
-297.6849763154642
 30
0.0
 11
394.5605883548745
 21
-295.6849763154643
 31
0.0
  0
LINE
  5
273
330
1F
100
AcDbEntity
  8
刻线
100
AcDbLine
 10
392.5605883548745
 20
-298.6849763154643
 30
0.0
 11
395.5605883548745
 21
-295.6849763154642
 31
0.0
  0
LINE
  5
274
330
1F
100
AcDbEntity
  8
刻线
100
AcDbLine
 10
392.5605883548745
 20
-299.6849763154642
 30
0.0
 11
396.5605883548745
 21
-295.6849763154642
 31
0.0
  0
LINE
  5
275
330
1F
100
AcDbEntity
  8
刻线
100
AcDbLine
 10
392.5605883548745
 20
-300.6849763154642
 30
0.0
 11
397.5605883548745
 21
-295.6849763154642
 31
0.0
  0
LINE
  5
276
330
1F
100
AcDbEntity
  8
刻线
100
AcDbLine
 10
392.5605883548745
 20
-301.6849763154642
 30
0.0
 11
398.5605883548745
 21
-295.6849763154642
 31
0.0
  0
LINE
  5
277
330
1F
100
AcDbEntity
  8
刻线
100
AcDbLine
 10
392.5605883548745
 20
-302.6849763154642
 30
0.0
 11
399.5605883548745
 21
-295.6849763154642
 31
0.0
  0
LINE
  5
278
330
1F
100
AcDbEntity
  8
刻线
100
AcDbLine
 10
392.5605883548745
 20
-303.6849763154643
 30
0.0
 11
400.5605883548745
 21
-295.6849763154643
 31
0.0
  0
LINE
  5
279
330
1F
100
AcDbEntity
  8
刻线
100
AcDbLine
 10
392.5605883548745
 20
-304.6849763154642
 30
0.0
 11
401.5605883548745
 21
-295.6849763154642
 31
0.0
  0
LINE
  5
27A
330
1F
100
AcDbEntity
  8
刻线
100
AcDbLine
 10
392.5605883548745
 20
-305.6849763154642
 30
0.0
 11
402.5605883548745
 21
-295.6849763154642
 31
0.0
  0
LINE
  5
27B
330
1F
100
AcDbEntity
  8
刻线
100
AcDbLine
 10
392.5605883548745
 20
-306.6849763154642
 30
0.0
 11
403.5605883548745
 21
-295.6849763154642
 31
0.0
  0
LINE
  5
27C
330
1F
100
AcDbEntity
  8
刻线
100
AcDbLine
 10
392.5605883548745
 20
-307.6849763154642
 30
0.0
 11
404.5605883548745
 21
-295.6849763154642
 31
0.0
  0
LINE
  5
27D
330
1F
100
AcDbEntity
  8
刻线
100
AcDbLine
 10
392.5605883548745
 20
-308.6849763154643
 30
0.0
 11
405.5605883548745
 21
-295.6849763154642
 31
0.0
  0
LINE
  5
27E
330
1F
100
AcDbEntity
  8
刻线
100
AcDbLine
 10
392.5605883548745
 20
-309.6849763154642
 30
0.0
 11
406.5605883548745
 21
-295.6849763154642
 31
0.0
  0
LINE
  5
27F
330
1F
100
AcDbEntity
  8
刻线
100
AcDbLine
 10
392.5605883548745
 20
-310.6849763154642
 30
0.0
 11
407.5605883548745
 21
-295.6849763154642
 31
0.0
  0
LINE
  5
280
330
1F
100
AcDbEntity
  8
刻线
100
AcDbLine
 10
400.5605883548745
 20
-328.6849763154642
 30
0.0
 11
407.5605883548745
 21
-321.6849763154642
 31
0.0
  0
LINE
  5
281
330
1F
100
AcDbEntity
  8
刻线
100
AcDbLine
 10
401.5605883548745
 20
-328.6849763154642
 30
0.0
 11
407.5605883548745
 21
-322.6849763154642
 31
0.0
  0
LINE
  5
282
330
1F
100
AcDbEntity
  8
刻线
100
AcDbLine
 10
402.5605883548745
 20
-328.6849763154642
 30
0.0
 11
407.5605883548745
 21
-323.6849763154642
 31
0.0
  0
LINE
  5
283
330
1F
100
AcDbEntity
  8
刻线
100
AcDbLine
 10
403.5605883548745
 20
-328.6849763154642
 30
0.0
 11
407.5605883548745
 21
-324.6849763154642
 31
0.0
  0
LINE
  5
284
330
1F
100
AcDbEntity
  8
刻线
100
AcDbLine
 10
404.5605883548745
 20
-328.6849763154642
 30
0.0
 11
407.5605883548745
 21
-325.6849763154642
 31
0.0
  0
LINE
  5
285
330
1F
100
AcDbEntity
  8
刻线
100
AcDbLine
 10
405.5605883548745
 20
-328.6849763154642
 30
0.0
 11
407.5605883548745
 21
-326.6849763154643
 31
0.0
  0
LINE
  5
286
330
1F
100
AcDbEntity
  8
刻线
100
AcDbLine
 10
406.5605883548745
 20
-328.6849763154642
 30
0.0
 11
407.5605883548744
 21
-327.6849763154642
 31
0.0
  0
LINE
  5
287
330
1F
100
AcDbEntity
  8
刻线
100
AcDbLine
 10
392.5605883548745
 20
-311.6849763154642
 30
0.0
 11
407.5605883548745
 21
-296.6849763154642
 31
0.0
  0
LINE
  5
288
330
1F
100
AcDbEntity
  8
刻线
100
AcDbLine
 10
392.5605883548745
 20
-312.6849763154642
 30
0.0
 11
407.5605883548745
 21
-297.6849763154642
 31
0.0
  0
LINE
  5
289
330
1F
100
AcDbEntity
  8
刻线
100
AcDbLine
 10
392.5605883548745
 20
-313.6849763154643
 30
0.0
 11
407.5605883548745
 21
-298.6849763154642
 31
0.0
  0
LINE
  5
28A
330
1F
100
AcDbEntity
  8
刻线
100
AcDbLine
 10
392.5605883548745
 20
-314.6849763154642
 30
0.0
 11
407.5605883548745
 21
-299.6849763154642
 31
0.0
  0
LINE
  5
28B
330
1F
100
AcDbEntity
  8
刻线
100
AcDbLine
 10
392.5605883548745
 20
-315.6849763154642
 30
0.0
 11
407.5605883548745
 21
-300.6849763154642
 31
0.0
  0
LINE
  5
28C
330
1F
100
AcDbEntity
  8
刻线
100
AcDbLine
 10
392.5605883548745
 20
-316.6849763154642
 30
0.0
 11
407.5605883548745
 21
-301.6849763154642
 31
0.0
  0
LINE
  5
28D
330
1F
100
AcDbEntity
  8
刻线
100
AcDbLine
 10
392.5605883548745
 20
-317.6849763154642
 30
0.0
 11
407.5605883548745
 21
-302.6849763154642
 31
0.0
  0
LINE
  5
28E
330
1F
100
AcDbEntity
  8
刻线
100
AcDbLine
 10
392.5605883548745
 20
-318.6849763154643
 30
0.0
 11
407.5605883548745
 21
-303.6849763154643
 31
0.0
  0
LINE
  5
28F
330
1F
100
AcDbEntity
  8
刻线
100
AcDbLine
 10
392.5605883548745
 20
-319.6849763154642
 30
0.0
 11
407.5605883548745
 21
-304.6849763154642
 31
0.0
  0
LINE
  5
290
330
1F
100
AcDbEntity
  8
刻线
100
AcDbLine
 10
392.5605883548745
 20
-320.6849763154642
 30
0.0
 11
407.5605883548745
 21
-305.6849763154642
 31
0.0
  0
LINE
  5
291
330
1F
100
AcDbEntity
  8
刻线
100
AcDbLine
 10
392.5605883548745
 20
-321.6849763154642
 30
0.0
 11
407.5605883548745
 21
-306.6849763154642
 31
0.0
  0
LINE
  5
292
330
1F
100
AcDbEntity
  8
刻线
100
AcDbLine
 10
392.5605883548745
 20
-322.6849763154642
 30
0.0
 11
407.5605883548745
 21
-307.6849763154642
 31
0.0
  0
LINE
  5
293
330
1F
100
AcDbEntity
  8
刻线
100
AcDbLine
 10
392.5605883548745
 20
-323.6849763154643
 30
0.0
 11
407.5605883548745
 21
-308.6849763154643
 31
0.0
  0
LINE
  5
294
330
1F
100
AcDbEntity
  8
刻线
100
AcDbLine
 10
392.5605883548745
 20
-324.6849763154642
 30
0.0
 11
407.5605883548745
 21
-309.6849763154642
 31
0.0
  0
LINE
  5
295
330
1F
100
AcDbEntity
  8
刻线
100
AcDbLine
 10
392.5605883548745
 20
-325.6849763154642
 30
0.0
 11
407.5605883548745
 21
-310.6849763154642
 31
0.0
  0
LINE
  5
296
330
1F
100
AcDbEntity
  8
刻线
100
AcDbLine
 10
392.5605883548745
 20
-326.6849763154642
 30
0.0
 11
407.5605883548745
 21
-311.6849763154642
 31
0.0
  0
LINE
  5
297
330
1F
100
AcDbEntity
  8
刻线
100
AcDbLine
 10
392.5605883548745
 20
-327.6849763154642
 30
0.0
 11
407.5605883548745
 21
-312.6849763154643
 31
0.0
  0
LINE
  5
298
330
1F
100
AcDbEntity
  8
刻线
100
AcDbLine
 10
392.5605883548745
 20
-328.6849763154643
 30
0.0
 11
407.5605883548745
 21
-313.6849763154642
 31
0.0
  0
LINE
  5
299
330
1F
100
AcDbEntity
  8
刻线
100
AcDbLine
 10
393.5605883548745
 20
-328.6849763154642
 30
0.0
 11
407.5605883548745
 21
-314.6849763154642
 31
0.0
  0
LINE
  5
29A
330
1F
100
AcDbEntity
  8
刻线
100
AcDbLine
 10
394.5605883548745
 20
-328.6849763154643
 30
0.0
 11
407.5605883548745
 21
-315.6849763154642
 31
0.0
  0
LINE
  5
29B
330
1F
100
AcDbEntity
  8
刻线
100
AcDbLine
 10
395.5605883548745
 20
-328.6849763154642
 30
0.0
 11
407.5605883548745
 21
-316.6849763154642
 31
0.0
  0
LINE
  5
29C
330
1F
100
AcDbEntity
  8
刻线
100
AcDbLine
 10
396.5605883548744
 20
-328.6849763154642
 30
0.0
 11
407.5605883548745
 21
-317.6849763154642
 31
0.0
  0
LINE
  5
29D
330
1F
100
AcDbEntity
  8
刻线
100
AcDbLine
 10
397.5605883548745
 20
-328.6849763154642
 30
0.0
 11
407.5605883548745
 21
-318.6849763154642
 31
0.0
  0
LINE
  5
29E
330
1F
100
AcDbEntity
  8
刻线
100
AcDbLine
 10
398.5605883548745
 20
-328.6849763154642
 30
0.0
 11
407.5605883548745
 21
-319.6849763154642
 31
0.0
  0
LINE
  5
29F
330
1F
100
AcDbEntity
  8
刻线
100
AcDbLine
 10
399.5605883548745
 20
-328.6849763154642
 30
0.0
 11
407.5605883548744
 21
-320.6849763154643
 31
0.0
  0
LINE
  5
2A0
330
1F
100
AcDbEntity
  8
刻线
100
AcDbLine
 10
392.5605883548745
 20
-295.6849763154642
 30
0.0
 11
392.5605883548745
 21
-328.6849763154642
 31
0.0
  0
LINE
  5
2A1
330
1F
100
AcDbEntity
  8
刻线
100
AcDbLine
 10
407.5605883548745
 20
-328.6849763154642
 30
0.0
 11
407.5605883548745
 21
-295.6849763154642
 31
0.0
  0
LINE
  5
2A2
330
1F
100
AcDbEntity
  8
刻线
100
AcDbLine
 10
392.5605883548745
 20
-328.6849763154642
 30
0.0
 11
407.5605883548745
 21
-328.6849763154642
 31
0.0
  0
LINE
  5
2A3
330
1F
100
AcDbEntity
  8
刻线
100
AcDbLine
 10
380.0605883548745
 20
-361.6849763154642
 30
-20.8342636970786
 11
520.0605883548744
 21
-361.6849763154642
 31
-20.8342636970786
  0
LINE
  5
2A4
330
1F
100
AcDbEntity
  8
刻线
100
AcDbLine
 10
380.0605883548745
 20
-295.6849763154642
 30
-20.8342636970786
 11
520.0605883548744
 21
-295.6849763154642
 31
-20.8342636970786
  0
LINE
  5
2A5
330
1F
100
AcDbEntity
  8
刻线
100
AcDbLine
 10
520.0605883548744
 20
-295.6849763154642
 30
-20.8342636970786
 11
520.0605883548744
 21
-361.6849763154642
 31
-20.8342636970786
  0
LINE
  5
2A6
330
1F
100
AcDbEntity
  8
刻线
100
AcDbLine
 10
460.0605883548745
 20
-295.6849763154642
 30
-20.8342636970786
 11
460.0605883548745
 21
-361.6849763154642
 31
-20.8342636970786
  0
LINE
  5
2A7
330
1F
100
AcDbEntity
  8
刻线
100
AcDbLine
 10
380.0605883548745
 20
-295.6849763154642
 30
-20.8342636970786
 11
380.0605883548745
 21
-361.6849763154642
 31
-20.8342636970786
  0
LINE
  5
2A8
330
1F
100
AcDbEntity
  8
Make2D$可见线$曲线
 62
    18
420
        0
370
    -3
100
AcDbLine
 10
330.8614171632778
 20
-366.0732811097398
 30
0.0
 11
338.0614171632806
 21
-366.0732811097398
 31
0.0
  0
LINE
  5
2A9
330
1F
100
AcDbEntity
  8
Make2D$可见线$曲线
 62
    18
420
        0
370
    -3
100
AcDbLine
 10
330.8614171632778
 20
-290.3837610340721
 30
0.0
 11
338.0614171632801
 21
-290.3837610340721
 31
0.0
  0
LINE
  5
2AA
330
1F
100
AcDbEntity
  8
Make2D$可见线$曲线
 62
    18
420
        0
370
    -3
100
AcDbLine
 10
330.8614171632776
 20
-336.8911787109148
 30
0.0
 11
335.8614171632778
 21
-336.8911787109148
 31
0.0
  0
LINE
  5
2AB
330
1F
100
AcDbEntity
  8
Make2D$可见线$曲线
 62
    18
420
        0
370
    -3
100
AcDbLine
 10
330.8614171632778
 20
-348.8911787109147
 30
0.0
 11
335.8614171632778
 21
-348.8911787109147
 31
0.0
  0
LINE
  5
2AC
330
1F
100
AcDbEntity
  8
Make2D$可见线$曲线
 62
    18
420
        0
370
    -3
100
AcDbLine
 10
335.8614171632778
 20
-336.8911787109148
 30
0.0
 11
335.8614171632778
 21
-348.8911787109147
 31
0.0
  0
LINE
  5
2AD
330
1F
100
AcDbEntity
  8
Make2D$可见线$曲线
 62
    18
420
        0
370
    -3
100
AcDbLine
 10
498.0614171632787
 20
-363.3075448068183
 30
0.0
 11
518.0614171632787
 21
-363.3075448068183
 31
0.0
  0
LINE
  5
2AE
330
1F
100
AcDbEntity
  8
Make2D$可见线$曲线
 62
    18
420
        0
370
    -3
100
AcDbLine
 10
498.0614171632787
 20
-363.3075448068183
 30
0.0
 11
498.0614171632787
 21
-366.0732811097398
 31
0.0
  0
LINE
  5
2AF
330
1F
100
AcDbEntity
  8
Make2D$可见线$曲线
 62
    18
420
        0
370
    -3
100
AcDbLine
 10
518.0614171632787
 20
-363.3075448068183
 30
0.0
 11
518.0614171632787
 21
-366.0732811097398
 31
0.0
  0
LINE
  5
2B0
330
1F
100
AcDbEntity
  8
Make2D$可见线$曲线
 62
    18
420
        0
370
    -3
100
AcDbLine
 10
518.0614171632787
 20
-366.0732811097398
 30
0.0
 11
525.2614171632777
 21
-366.0732811097398
 31
0.0
  0
LINE
  5
2B1
330
1F
100
AcDbEntity
  8
Make2D$可见线$曲线
 62
    18
420
        0
370
    -3
100
AcDbLine
 10
458.0614171632792
 20
-363.3075448068183
 30
0.0
 11
478.0614171632792
 21
-363.3075448068183
 31
0.0
  0
LINE
  5
2B2
330
1F
100
AcDbEntity
  8
Make2D$可见线$曲线
 62
    18
420
        0
370
    -3
100
AcDbLine
 10
458.0614171632792
 20
-363.3075448068183
 30
0.0
 11
458.0614171632792
 21
-366.0732811097398
 31
0.0
  0
LINE
  5
2B3
330
1F
100
AcDbEntity
  8
Make2D$可见线$曲线
 62
    18
420
        0
370
    -3
100
AcDbLine
 10
478.0614171632792
 20
-363.3075448068183
 30
0.0
 11
478.0614171632792
 21
-366.0732811097398
 31
0.0
  0
LINE
  5
2B4
330
1F
100
AcDbEntity
  8
Make2D$可见线$曲线
 62
    18
420
        0
370
    -3
100
AcDbLine
 10
478.0614171632792
 20
-366.0732811097398
 30
0.0
 11
498.0614171632787
 21
-366.0732811097398
 31
0.0
  0
LINE
  5
2B5
330
1F
100
AcDbEntity
  8
Make2D$可见线$曲线
 62
    18
420
        0
370
    -3
100
AcDbLine
 10
418.0614171632797
 20
-363.3075448068183
 30
0.0
 11
438.0614171632797
 21
-363.3075448068183
 31
0.0
  0
LINE
  5
2B6
330
1F
100
AcDbEntity
  8
Make2D$可见线$曲线
 62
    18
420
        0
370
    -3
100
AcDbLine
 10
418.0614171632797
 20
-363.3075448068183
 30
0.0
 11
418.0614171632797
 21
-366.0732811097398
 31
0.0
  0
LINE
  5
2B7
330
1F
100
AcDbEntity
  8
Make2D$可见线$曲线
 62
    18
420
        0
370
    -3
100
AcDbLine
 10
438.0614171632797
 20
-363.3075448068183
 30
0.0
 11
438.0614171632797
 21
-366.0732811097398
 31
0.0
  0
LINE
  5
2B8
330
1F
100
AcDbEntity
  8
Make2D$可见线$曲线
 62
    18
420
        0
370
    -3
100
AcDbLine
 10
438.0614171632797
 20
-366.0732811097398
 30
0.0
 11
458.0614171632792
 21
-366.0732811097398
 31
0.0
  0
LINE
  5
2B9
330
1F
100
AcDbEntity
  8
Make2D$可见线$曲线
 62
    18
420
        0
370
    -3
100
AcDbLine
 10
378.0614171632801
 20
-363.3075448068183
 30
0.0
 11
398.0614171632801
 21
-363.3075448068183
 31
0.0
  0
LINE
  5
2BA
330
1F
100
AcDbEntity
  8
Make2D$可见线$曲线
 62
    18
420
        0
370
    -3
100
AcDbLine
 10
378.0614171632801
 20
-363.3075448068183
 30
0.0
 11
378.0614171632801
 21
-366.0732811097398
 31
0.0
  0
LINE
  5
2BB
330
1F
100
AcDbEntity
  8
Make2D$可见线$曲线
 62
    18
420
        0
370
    -3
100
AcDbLine
 10
398.0614171632801
 20
-363.3075448068183
 30
0.0
 11
398.0614171632801
 21
-366.0732811097398
 31
0.0
  0
LINE
  5
2BC
330
1F
100
AcDbEntity
  8
Make2D$可见线$曲线
 62
    18
420
        0
370
    -3
100
AcDbLine
 10
398.0614171632801
 20
-366.0732811097398
 30
0.0
 11
418.0614171632797
 21
-366.0732811097398
 31
0.0
  0
LINE
  5
2BD
330
1F
100
AcDbEntity
  8
Make2D$可见线$曲线
 62
    18
420
        0
370
    -3
100
AcDbLine
 10
338.0614171632806
 20
-363.3075448068183
 30
0.0
 11
358.0614171632806
 21
-363.3075448068183
 31
0.0
  0
LINE
  5
2BE
330
1F
100
AcDbEntity
  8
Make2D$可见线$曲线
 62
    18
420
        0
370
    -3
100
AcDbLine
 10
338.0614171632806
 20
-363.3075448068183
 30
0.0
 11
338.0614171632806
 21
-366.0732811097398
 31
0.0
  0
LINE
  5
2BF
330
1F
100
AcDbEntity
  8
Make2D$可见线$曲线
 62
    18
420
        0
370
    -3
100
AcDbLine
 10
358.0614171632806
 20
-363.3075448068183
 30
0.0
 11
358.0614171632806
 21
-366.0732811097398
 31
0.0
  0
LINE
  5
2C0
330
1F
100
AcDbEntity
  8
Make2D$可见线$曲线
 62
    18
420
        0
370
    -3
100
AcDbLine
 10
358.0614171632806
 20
-366.0732811097398
 30
0.0
 11
378.0614171632801
 21
-366.0732811097398
 31
0.0
  0
LINE
  5
2C1
330
1F
100
AcDbEntity
  8
Make2D$可见线$曲线
 62
    18
420
        0
370
    -3
100
AcDbLine
 10
498.0614171632787
 20
-290.3837610340721
 30
0.0
 11
498.0614171632787
 21
-293.2184492115816
 31
0.0
  0
LINE
  5
2C2
330
1F
100
AcDbEntity
  8
Make2D$可见线$曲线
 62
    18
420
        0
370
    -3
100
AcDbLine
 10
498.0614171632787
 20
-293.2184492115816
 30
0.0
 11
518.0614171632787
 21
-293.2184492115816
 31
0.0
  0
LINE
  5
2C3
330
1F
100
AcDbEntity
  8
Make2D$可见线$曲线
 62
    18
420
        0
370
    -3
100
AcDbLine
 10
518.0614171632787
 20
-290.3837610340721
 30
0.0
 11
518.0614171632787
 21
-293.2184492115816
 31
0.0
  0
LINE
  5
2C4
330
1F
100
AcDbEntity
  8
Make2D$可见线$曲线
 62
    18
420
        0
370
    -3
100
AcDbLine
 10
518.0614171632787
 20
-290.3837610340721
 30
0.0
 11
525.2614171632777
 21
-290.3837610340721
 31
0.0
  0
LINE
  5
2C5
330
1F
100
AcDbEntity
  8
Make2D$可见线$曲线
 62
    18
420
        0
370
    -3
100
AcDbLine
 10
458.0614171632792
 20
-290.3837610340721
 30
0.0
 11
458.0614171632792
 21
-293.2184492115816
 31
0.0
  0
LINE
  5
2C6
330
1F
100
AcDbEntity
  8
Make2D$可见线$曲线
 62
    18
420
        0
370
    -3
100
AcDbLine
 10
458.0614171632792
 20
-293.2184492115816
 30
0.0
 11
478.0614171632792
 21
-293.2184492115816
 31
0.0
  0
LINE
  5
2C7
330
1F
100
AcDbEntity
  8
Make2D$可见线$曲线
 62
    18
420
        0
370
    -3
100
AcDbLine
 10
478.0614171632792
 20
-290.3837610340721
 30
0.0
 11
478.0614171632792
 21
-293.2184492115816
 31
0.0
  0
LINE
  5
2C8
330
1F
100
AcDbEntity
  8
Make2D$可见线$曲线
 62
    18
420
        0
370
    -3
100
AcDbLine
 10
478.0614171632792
 20
-290.3837610340721
 30
0.0
 11
498.0614171632787
 21
-290.3837610340721
 31
0.0
  0
LINE
  5
2C9
330
1F
100
AcDbEntity
  8
Make2D$可见线$曲线
 62
    18
420
        0
370
    -3
100
AcDbLine
 10
418.0614171632794
 20
-290.3837610340721
 30
0.0
 11
418.0614171632794
 21
-293.2184492115816
 31
0.0
  0
LINE
  5
2CA
330
1F
100
AcDbEntity
  8
Make2D$可见线$曲线
 62
    18
420
        0
370
    -3
100
AcDbLine
 10
418.0614171632794
 20
-293.2184492115816
 30
0.0
 11
438.0614171632794
 21
-293.2184492115816
 31
0.0
  0
LINE
  5
2CB
330
1F
100
AcDbEntity
  8
Make2D$可见线$曲线
 62
    18
420
        0
370
    -3
100
AcDbLine
 10
438.0614171632794
 20
-290.3837610340721
 30
0.0
 11
438.0614171632794
 21
-293.2184492115816
 31
0.0
  0
LINE
  5
2CC
330
1F
100
AcDbEntity
  8
Make2D$可见线$曲线
 62
    18
420
        0
370
    -3
100
AcDbLine
 10
438.0614171632794
 20
-290.3837610340721
 30
0.0
 11
458.0614171632792
 21
-290.3837610340721
 31
0.0
  0
LINE
  5
2CD
330
1F
100
AcDbEntity
  8
Make2D$可见线$曲线
 62
    18
420
        0
370
    -3
100
AcDbLine
 10
378.0614171632797
 20
-290.3837610340721
 30
0.0
 11
378.0614171632797
 21
-293.2184492115816
 31
0.0
  0
LINE
  5
2CE
330
1F
100
AcDbEntity
  8
Make2D$可见线$曲线
 62
    18
420
        0
370
    -3
100
AcDbLine
 10
378.0614171632797
 20
-293.2184492115816
 30
0.0
 11
398.0614171632797
 21
-293.2184492115816
 31
0.0
  0
LINE
  5
2CF
330
1F
100
AcDbEntity
  8
Make2D$可见线$曲线
 62
    18
420
        0
370
    -3
100
AcDbLine
 10
398.0614171632797
 20
-290.3837610340721
 30
0.0
 11
398.0614171632797
 21
-293.2184492115816
 31
0.0
  0
LINE
  5
2D0
330
1F
100
AcDbEntity
  8
Make2D$可见线$曲线
 62
    18
420
        0
370
    -3
100
AcDbLine
 10
398.0614171632797
 20
-290.3837610340721
 30
0.0
 11
418.0614171632794
 21
-290.3837610340721
 31
0.0
  0
LINE
  5
2D1
330
1F
100
AcDbEntity
  8
Make2D$可见线$曲线
 62
    18
420
        0
370
    -3
100
AcDbLine
 10
338.0614171632801
 20
-290.3837610340721
 30
0.0
 11
338.0614171632801
 21
-293.2184492115816
 31
0.0
  0
LINE
  5
2D2
330
1F
100
AcDbEntity
  8
Make2D$可见线$曲线
 62
    18
420
        0
370
    -3
100
AcDbLine
 10
338.0614171632801
 20
-293.2184492115816
 30
0.0
 11
358.0614171632801
 21
-293.2184492115816
 31
0.0
  0
LINE
  5
2D3
330
1F
100
AcDbEntity
  8
Make2D$可见线$曲线
 62
    18
420
        0
370
    -3
100
AcDbLine
 10
358.0614171632801
 20
-290.3837610340721
 30
0.0
 11
358.0614171632801
 21
-293.2184492115816
 31
0.0
  0
LINE
  5
2D4
330
1F
100
AcDbEntity
  8
Make2D$可见线$曲线
 62
    18
420
        0
370
    -3
100
AcDbLine
 10
358.0614171632801
 20
-290.3837610340721
 30
0.0
 11
378.0614171632797
 21
-290.3837610340721
 31
0.0
  0
ENDSEC
  0
SECTION
  2
OBJECTS
  0
DICTIONARY
  5
C
330
0
100
AcDbDictionary
281
     1
  3
ACAD_DETAILVIEWSTYLE
350
31A
  3
ACAD_GROUP
350
D
  3
ACAD_LAYOUT
350
1A
  3
ACAD_MATERIAL
350
43
  3
ACAD_MLEADERSTYLE
350
6B
  3
ACAD_MLINESTYLE
350
17
  3
ACAD_PLOTSETTINGS
350
19
  3
ACAD_PLOTSTYLENAME
350
E
  3
ACAD_SCALELIST
350
47
  3
ACAD_SECTIONVIEWSTYLE
350
31B
  3
ACAD_TABLESTYLE
350
69
  3
ACAD_VISUALSTYLE
350
2A
  3
ACDB_RECOMPOSE_DATA
350
317
  3
AcDbVariableDictionary
350
2D7
  0
DICTIONARY
  5
2D5
330
8
100
AcDbDictionary
280
     1
281
     1
  3
ACAD_XREC_ROUNDTRIP
360
2D6
  0
DICTIONARY
  5
31A
102
{ACAD_REACTORS
330
C
102
}
330
C
100
AcDbDictionary
281
     1
  0
DICTIONARY
  5
D
102
{ACAD_REACTORS
330
C
102
}
330
C
100
AcDbDictionary
281
     1
  0
DICTIONARY
  5
1A
102
{ACAD_REACTORS
330
C
102
}
330
C
100
AcDbDictionary
281
     1
  3
Layout1
350
1E
  3
Layout2
350
26
  3
Model
350
22
  0
DICTIONARY
  5
43
102
{ACAD_REACTORS
330
C
102
}
330
C
100
AcDbDictionary
281
     1
  3
ByBlock
350
45
  3
ByLayer
350
44
  3
Global
350
46
  0
DICTIONARY
  5
6B
102
{ACAD_REACTORS
330
C
102
}
330
C
100
AcDbDictionary
281
     1
  3
Standard
350
6C
  0
DICTIONARY
  5
17
102
{ACAD_REACTORS
330
C
102
}
330
C
100
AcDbDictionary
281
     1
  3
Standard
350
18
  0
DICTIONARY
  5
19
102
{ACAD_REACTORS
330
C
102
}
330
C
100
AcDbDictionary
281
     1
  0
ACDBDICTIONARYWDFLT
  5
E
102
{ACAD_REACTORS
330
C
102
}
330
C
100
AcDbDictionary
281
     1
  3
Normal
350
F
100
AcDbDictionaryWithDefault
340
F
  0
DICTIONARY
  5
47
102
{ACAD_REACTORS
330
C
102
}
330
C
100
AcDbDictionary
281
     1
  3
A0
350
48
  3
A1
350
49
  3
A2
350
4A
  3
A3
350
4B
  3
A4
350
4C
  3
A5
350
4D
  3
A6
350
4E
  3
A7
350
4F
  3
A8
350
50
  3
A9
350
51
  3
B0
350
52
  3
B1
350
53
  3
B2
350
54
  3
B3
350
55
  3
B4
350
56
  3
B5
350
57
  3
B6
350
58
  3
B7
350
59
  3
B8
350
5A
  3
B9
350
5B
  3
C0
350
5C
  3
C1
350
5D
  3
C2
350
5E
  3
C3
350
5F
  3
C4
350
60
  3
C5
350
61
  3
C6
350
62
  3
C7
350
63
  3
C8
350
64
  3
C9
350
65
  3
D0
350
66
  3
D1
350
67
  3
D2
350
68
  0
DICTIONARY
  5
31B
102
{ACAD_REACTORS
330
C
102
}
330
C
100
AcDbDictionary
281
     1
  0
DICTIONARY
  5
69
102
{ACAD_REACTORS
330
C
102
}
330
C
100
AcDbDictionary
281
     1
  3
Standard
350
6A
  0
DICTIONARY
  5
2A
102
{ACAD_REACTORS
330
C
102
}
330
C
100
AcDbDictionary
281
     1
  3
2dWireframe
350
2F
  3
Basic
350
32
  3
Brighten
350
36
  3
ColorChange
350
3A
  3
Conceptual
350
34
  3
Dim
350
35
  3
EdgeColorOff
350
3D
  3
Facepattern
350
39
  3
Flat
350
2B
  3
FlatWithEdges
350
2C
  3
Gouraud
350
2D
  3
GouraudWithEdges
350
2E
  3
Hidden
350
31
  3
JitterOff
350
3B
  3
Linepattern
350
38
  3
OverhangOff
350
3C
  3
Realistic
350
33
  3
Shaded
350
42
  3
Shaded with edges
350
41
  3
Shades of Gray
350
3E
  3
Sketchy
350
3F
  3
Thicken
350
37
  3
Wireframe
350
30
  3
X-Ray
350
40
  0
XRECORD
  5
317
102
{ACAD_REACTORS
330
C
102
}
330
C
100
AcDbXrecord
280
     1
 90
        1
330
6A
  0
DICTIONARY
  5
2D7
102
{ACAD_REACTORS
330
C
102
}
330
C
100
AcDbDictionary
281
     1
  3
CANNOSCALE
350
2D8
  3
CMLEADERSTYLE
350
319
  3
CTABLESTYLE
350
318
  3
MSLTSCALE
350
2D9
  3
XCLIPFRAME
350
2DA
  0
XRECORD
  5
2D6
102
{ACAD_REACTORS
330
2D5
102
}
330
2D5
100
AcDbXrecord
280
     1
102
VTR_0.000_0.000_1.000_1.000_VISUALSTYLE
340
2F
102
VTR_0.000_0.000_1.000_1.000_GRIDDISPLAY
 70
     3
102
VTR_0.000_0.000_1.000_1.000_GRIDMAJOR
 70
     5
102
VTR_0.000_0.000_1.000_1.000_DEFAULTLIGHTING
280
     1
102
VTR_0.000_0.000_1.000_1.000_DEFAULTLIGHTINGTYPE
 70
     1
102
VTR_0.000_0.000_1.000_1.000_BRIGHTNESS
141
0.0
102
VTR_0.000_0.000_1.000_1.000_CONTRAST
142
0.0
  0
LAYOUT
  5
1E
102
{ACAD_REACTORS
330
1A
102
}
330
1A
100
AcDbPlotSettings
  1

  2
none_device
  4

  6

 40
0.0
 41
0.0
 42
0.0
 43
0.0
 44
0.0
 45
0.0
 46
0.0
 47
0.0
 48
0.0
 49
0.0
140
0.0
141
0.0
142
1.0
143
1.0
 70
   688
 72
     0
 73
     0
 74
     5
  7

 75
    16
 76
     0
 77
     2
 78
   300
147
1.0
148
0.0
149
0.0
100
AcDbLayout
  1
Layout1
 70
     1
 71
     1
 10
0.0
 20
0.0
 11
12.0
 21
9.0
 12
0.0
 22
0.0
 32
0.0
 14
1.000000000000000E+20
 24
1.000000000000000E+20
 34
1.000000000000000E+20
 15
-1.000000000000000E+20
 25
-1.000000000000000E+20
 35
-1.000000000000000E+20
146
0.0
 13
0.0
 23
0.0
 33
0.0
 16
1.0
 26
0.0
 36
0.0
 17
0.0
 27
1.0
 37
0.0
 76
     0
330
1B
  0
LAYOUT
  5
26
102
{ACAD_REACTORS
330
1A
102
}
330
1A
100
AcDbPlotSettings
  1

  2
none_device
  4

  6

 40
0.0
 41
0.0
 42
0.0
 43
0.0
 44
0.0
 45
0.0
 46
0.0
 47
0.0
 48
0.0
 49
0.0
140
0.0
141
0.0
142
1.0
143
1.0
 70
   688
 72
     0
 73
     0
 74
     5
  7

 75
    16
 76
     0
 77
     2
 78
   300
147
1.0
148
0.0
149
0.0
100
AcDbLayout
  1
Layout2
 70
     1
 71
     2
 10
0.0
 20
0.0
 11
0.0
 21
0.0
 12
0.0
 22
0.0
 32
0.0
 14
0.0
 24
0.0
 34
0.0
 15
0.0
 25
0.0
 35
0.0
146
0.0
 13
0.0
 23
0.0
 33
0.0
 16
1.0
 26
0.0
 36
0.0
 17
0.0
 27
1.0
 37
0.0
 76
     0
330
23
  0
LAYOUT
  5
22
102
{ACAD_REACTORS
330
1A
102
}
330
1A
100
AcDbPlotSettings
  1

  2
none_device
  4
Letter_(8.50_x_11.00_Inches)
  6

 40
6.35
 41
6.35
 42
6.35000508
 43
6.35000508
 44
215.9
 45
279.4
 46
0.0
 47
0.0
 48
0.0
 49
0.0
140
0.0
141
0.0
142
1.0
143
1.0
 70
  1712
 72
     0
 73
     0
 74
     0
  7

 75
     0
 76
     0
 77
     2
 78
   300
147
1.0
148
0.0
149
0.0
100
AcDbLayout
  1
Model
 70
     1
 71
     0
 10
0.0
 20
0.0
 11
12.0
 21
9.0
 12
0.0
 22
0.0
 32
0.0
 14
1.000000000000000E+20
 24
1.000000000000000E+20
 34
1.000000000000000E+20
 15
-1.000000000000000E+20
 25
-1.000000000000000E+20
 35
-1.000000000000000E+20
146
0.0
 13
0.0
 23
0.0
 33
0.0
 16
1.0
 26
0.0
 36
0.0
 17
0.0
 27
1.0
 37
0.0
 76
     0
330
1F
331
29
  0
MATERIAL
  5
45
102
{ACAD_REACTORS
330
43
102
}
102
{ACAD_XDICTIONARY
360
30D
102
}
330
43
100
AcDbMaterial
  1
ByBlock
  0
MATERIAL
  5
44
102
{ACAD_REACTORS
330
43
102
}
102
{ACAD_XDICTIONARY
360
30B
102
}
330
43
100
AcDbMaterial
  1
ByLayer
  0
MATERIAL
  5
46
102
{ACAD_REACTORS
330
43
102
}
102
{ACAD_XDICTIONARY
360
30F
102
}
330
43
100
AcDbMaterial
  1
Global
  0
MLEADERSTYLE
  5
6C
102
{ACAD_REACTORS
330
6B
102
}
102
{ACAD_XDICTIONARY
360
315
102
}
330
6B
100
AcDbMLeaderStyle
170
     2
171
     1
172
     0
 90
        2
 40
0.0
 41
0.0
173
     1
 91
-1056964608
340
14
 92
       -2
290
     1
 42
0.09
291
     1
 43
0.36
  3
Standard
341
0
 44
0.18
300

342
11
174
     1
178
     6
175
     1
176
     0
 93
-1056964608
 45
0.18
292
     0
297
     0
 46
0.18
343
0
 94
-1056964608
 47
1.0
 49
1.0
140
1.0
293
     1
141
0.0
294
     1
177
     0
142
1.0
295
     0
296
     0
143
0.125
1001
ACAD_MLEADERVER
1070
     2
  0
MLINESTYLE
  5
18
102
{ACAD_REACTORS
330
17
102
}
330
17
100
AcDbMlineStyle
  2
Standard
 70
     0
  3

 62
   256
 51
90.0
 52
90.0
 71
     2
 49
0.5
 62
   256
  6
BYLAYER
 49
-0.5
 62
   256
  6
BYLAYER
  0
ACDBPLACEHOLDER
  5
F
102
{ACAD_REACTORS
330
E
102
}
330
E
  0
SCALE
  5
48
102
{ACAD_REACTORS
330
47
102
}
330
47
100
AcDbScale
 70
     0
300
1:1
140
1.0
141
1.0
290
     1
  0
SCALE
  5
49
102
{ACAD_REACTORS
330
47
102
}
330
47
100
AcDbScale
 70
     0
300
1:2
140
1.0
141
2.0
290
     0
  0
SCALE
  5
4A
102
{ACAD_REACTORS
330
47
102
}
330
47
100
AcDbScale
 70
     0
300
1:4
140
1.0
141
4.0
290
     0
  0
SCALE
  5
4B
102
{ACAD_REACTORS
330
47
102
}
330
47
100
AcDbScale
 70
     0
300
1:5
140
1.0
141
5.0
290
     0
  0
SCALE
  5
4C
102
{ACAD_REACTORS
330
47
102
}
330
47
100
AcDbScale
 70
     0
300
1:8
140
1.0
141
8.0
290
     0
  0
SCALE
  5
4D
102
{ACAD_REACTORS
330
47
102
}
330
47
100
AcDbScale
 70
     0
300
1:10
140
1.0
141
10.0
290
     0
  0
SCALE
  5
4E
102
{ACAD_REACTORS
330
47
102
}
330
47
100
AcDbScale
 70
     0
300
1:16
140
1.0
141
16.0
290
     0
  0
SCALE
  5
4F
102
{ACAD_REACTORS
330
47
102
}
330
47
100
AcDbScale
 70
     0
300
1:20
140
1.0
141
20.0
290
     0
  0
SCALE
  5
50
102
{ACAD_REACTORS
330
47
102
}
330
47
100
AcDbScale
 70
     0
300
1:30
140
1.0
141
30.0
290
     0
  0
SCALE
  5
51
102
{ACAD_REACTORS
330
47
102
}
330
47
100
AcDbScale
 70
     0
300
1:40
140
1.0
141
40.0
290
     0
  0
SCALE
  5
52
102
{ACAD_REACTORS
330
47
102
}
330
47
100
AcDbScale
 70
     0
300
1:50
140
1.0
141
50.0
290
     0
  0
SCALE
  5
53
102
{ACAD_REACTORS
330
47
102
}
330
47
100
AcDbScale
 70
     0
300
1:100
140
1.0
141
100.0
290
     0
  0
SCALE
  5
54
102
{ACAD_REACTORS
330
47
102
}
330
47
100
AcDbScale
 70
     0
300
2:1
140
2.0
141
1.0
290
     0
  0
SCALE
  5
55
102
{ACAD_REACTORS
330
47
102
}
330
47
100
AcDbScale
 70
     0
300
4:1
140
4.0
141
1.0
290
     0
  0
SCALE
  5
56
102
{ACAD_REACTORS
330
47
102
}
330
47
100
AcDbScale
 70
     0
300
8:1
140
8.0
141
1.0
290
     0
  0
SCALE
  5
57
102
{ACAD_REACTORS
330
47
102
}
330
47
100
AcDbScale
 70
     0
300
10:1
140
10.0
141
1.0
290
     0
  0
SCALE
  5
58
102
{ACAD_REACTORS
330
47
102
}
330
47
100
AcDbScale
 70
     0
300
100:1
140
100.0
141
1.0
290
     0
  0
SCALE
  5
59
102
{ACAD_REACTORS
330
47
102
}
330
47
100
AcDbScale
 70
     0
300
1/128" = 1'-0"
140
0.0078125
141
12.0
290
     0
  0
SCALE
  5
5A
102
{ACAD_REACTORS
330
47
102
}
330
47
100
AcDbScale
 70
     0
300
1/64" = 1'-0"
140
0.015625
141
12.0
290
     0
  0
SCALE
  5
5B
102
{ACAD_REACTORS
330
47
102
}
330
47
100
AcDbScale
 70
     0
300
1/32" = 1'-0"
140
0.03125
141
12.0
290
     0
  0
SCALE
  5
5C
102
{ACAD_REACTORS
330
47
102
}
330
47
100
AcDbScale
 70
     0
300
1/16" = 1'-0"
140
0.0625
141
12.0
290
     0
  0
SCALE
  5
5D
102
{ACAD_REACTORS
330
47
102
}
330
47
100
AcDbScale
 70
     0
300
3/32" = 1'-0"
140
0.09375
141
12.0
290
     0
  0
SCALE
  5
5E
102
{ACAD_REACTORS
330
47
102
}
330
47
100
AcDbScale
 70
     0
300
1/8" = 1'-0"
140
0.125
141
12.0
290
     0
  0
SCALE
  5
5F
102
{ACAD_REACTORS
330
47
102
}
330
47
100
AcDbScale
 70
     0
300
3/16" = 1'-0"
140
0.1875
141
12.0
290
     0
  0
SCALE
  5
60
102
{ACAD_REACTORS
330
47
102
}
330
47
100
AcDbScale
 70
     0
300
1/4" = 1'-0"
140
0.25
141
12.0
290
     0
  0
SCALE
  5
61
102
{ACAD_REACTORS
330
47
102
}
330
47
100
AcDbScale
 70
     0
300
3/8" = 1'-0"
140
0.375
141
12.0
290
     0
  0
SCALE
  5
62
102
{ACAD_REACTORS
330
47
102
}
330
47
100
AcDbScale
 70
     0
300
1/2" = 1'-0"
140
0.5
141
12.0
290
     0
  0
SCALE
  5
63
102
{ACAD_REACTORS
330
47
102
}
330
47
100
AcDbScale
 70
     0
300
3/4" = 1'-0"
140
0.75
141
12.0
290
     0
  0
SCALE
  5
64
102
{ACAD_REACTORS
330
47
102
}
330
47
100
AcDbScale
 70
     0
300
1" = 1'-0"
140
1.0
141
12.0
290
     0
  0
SCALE
  5
65
102
{ACAD_REACTORS
330
47
102
}
330
47
100
AcDbScale
 70
     0
300
1-1/2" = 1'-0"
140
1.5
141
12.0
290
     0
  0
SCALE
  5
66
102
{ACAD_REACTORS
330
47
102
}
330
47
100
AcDbScale
 70
     0
300
3" = 1'-0"
140
3.0
141
12.0
290
     0
  0
SCALE
  5
67
102
{ACAD_REACTORS
330
47
102
}
330
47
100
AcDbScale
 70
     0
300
6" = 1'-0"
140
6.0
141
12.0
290
     0
  0
SCALE
  5
68
102
{ACAD_REACTORS
330
47
102
}
330
47
100
AcDbScale
 70
     0
300
1'-0" = 1'-0"
140
12.0
141
12.0
290
     0
  0
TABLESTYLE
  5
6A
102
{ACAD_REACTORS
330
69
102
}
102
{ACAD_XDICTIONARY
360
311
102
}
330
69
100
AcDbTableStyle
  3
Standard
 70
     0
 71
     0
 40
0.06
 41
0.06
280
     0
281
     0
  7
Standard
140
0.18
170
     2
 62
     0
 63
   257
283
     0
274
    -2
284
     1
 64
     0
275
    -2
285
     1
 65
     0
276
    -2
286
     1
 66
     0
277
    -2
287
     1
 67
     0
278
    -2
288
     1
 68
     0
279
    -2
289
     1
 69
     0
  7
Standard
140
0.25
170
     5
 62
     0
 63
   257
283
     0
274
    -2
284
     1
 64
     0
275
    -2
285
     1
 65
     0
276
    -2
286
     1
 66
     0
277
    -2
287
     1
 67
     0
278
    -2
288
     1
 68
     0
279
    -2
289
     1
 69
     0
  7
Standard
140
0.18
170
     5
 62
     0
 63
   257
283
     0
274
    -2
284
     1
 64
     0
275
    -2
285
     1
 65
     0
276
    -2
286
     1
 66
     0
277
    -2
287
     1
 67
     0
278
    -2
288
     1
 68
     0
279
    -2
289
     1
 69
     0
  0
VISUALSTYLE
  5
2F
102
{ACAD_REACTORS
330
2A
102
}
102
{ACAD_XDICTIONARY
360
2E3
102
}
330
2A
100
AcDbVisualStyle
  2
2dWireframe
 70
     4
 71
     0
 72
     2
 73
     0
 90
        0
 40
0.6
 41
30.0
 62
     5
 63
     7
421
 16777215
 74
     1
 91
        4
 64
     7
 65
   257
 75
     1
175
     1
 42
1.0
 92
        0
 66
   257
 43
1.0
 76
     1
 77
     6
 78
     2
 67
     7
 79
     5
170
     0
171
     0
290
     0
174
     0
 93
        1
 44
0.0
173
     0
291
     0
 45
0.0
1001
ACAD
1000
AcDbSavedByObjectVersion
1070
     0
  0
VISUALSTYLE
  5
32
102
{ACAD_REACTORS
330
2A
102
}
102
{ACAD_XDICTIONARY
360
2E9
102
}
330
2A
100
AcDbVisualStyle
  2
Basic
 70
     7
 71
     1
 72
     0
 73
     1
 90
        0
 40
0.6
 41
30.0
 62
     5
 63
     7
421
 16777215
 74
     0
 91
        4
 64
     7
 65
   257
 75
     1
175
     1
 42
1.0
 92
        8
 66
     7
 43
1.0
 76
     1
 77
     6
 78
     2
 67
     7
 79
     5
170
     0
171
     0
290
     0
174
     0
 93
        1
 44
0.0
173
     0
291
     1
 45
0.0
1001
ACAD
1000
AcDbSavedByObjectVersion
1070
     0
  0
VISUALSTYLE
  5
36
102
{ACAD_REACTORS
330
2A
102
}
102
{ACAD_XDICTIONARY
360
2F1
102
}
330
2A
100
AcDbVisualStyle
  2
Brighten
 70
    12
 71
     2
 72
     2
 73
     0
 90
        0
 40
0.6
 41
30.0
 62
     5
 63
     7
421
 16777215
 74
     1
 91
        4
 64
     7
 65
   257
 75
     1
175
     1
 42
1.0
 92
        8
 66
     7
 43
1.0
 76
     1
 77
     6
 78
     2
 67
     7
 79
     5
170
     0
171
     0
290
     0
174
     0
 93
        1
 44
50.0
173
     0
291
     1
 45
0.0
1001
ACAD
1000
AcDbSavedByObjectVersion
1070
     0
  0
VISUALSTYLE
  5
3A
102
{ACAD_REACTORS
330
2A
102
}
102
{ACAD_XDICTIONARY
360
2F9
102
}
330
2A
100
AcDbVisualStyle
  2
ColorChange
 70
    16
 71
     2
 72
     2
 73
     3
 90
        0
 40
0.6
 41
30.0
 62
     5
 63
     8
421
  8421504
 74
     1
 91
        4
 64
     7
 65
   257
 75
     1
175
     1
 42
1.0
 92
        8
 66
     8
424
  8421504
 43
1.0
 76
     1
 77
     6
 78
     2
 67
     7
 79
     5
170
     0
171
     0
290
     0
174
     0
 93
        1
 44
0.0
173
     0
291
     1
 45
0.0
1001
ACAD
1000
AcDbSavedByObjectVersion
1070
     0
  0
VISUALSTYLE
  5
34
102
{ACAD_REACTORS
330
2A
102
}
102
{ACAD_XDICTIONARY
360
2ED
102
}
330
2A
100
AcDbVisualStyle
  2
Conceptual
 70
     9
 71
     3
 72
     2
 73
     0
 90
        0
 40
0.6
 41
30.0
 62
     5
 63
     7
421
 16777215
 74
     2
 91
        2
 64
     7
 65
   257
 75
     1
175
     1
 42
179.0
 92
        8
 66
     7
 43
1.0
 76
     1
 77
     6
 78
     2
 67
     7
 79
     3
170
     0
171
     0
290
     0
174
     0
 93
        1
 44
0.0
173
     0
291
     0
 45
0.0
1001
ACAD
1000
AcDbSavedByObjectVersion
1070
     0
  0
VISUALSTYLE
  5
35
102
{ACAD_REACTORS
330
2A
102
}
102
{ACAD_XDICTIONARY
360
2EF
102
}
330
2A
100
AcDbVisualStyle
  2
Dim
 70
    11
 71
     2
 72
     2
 73
     0
 90
        0
 40
0.6
 41
30.0
 62
     5
 63
     7
421
 16777215
 74
     1
 91
        4
 64
     7
 65
   257
 75
     1
175
     1
 42
1.0
 92
        8
 66
     7
 43
1.0
 76
     1
 77
     6
 78
     2
 67
     7
 79
     5
170
     0
171
     0
290
     0
174
     0
 93
        1
 44
-50.0
173
     0
291
     1
 45
0.0
1001
ACAD
1000
AcDbSavedByObjectVersion
1070
     0
  0
VISUALSTYLE
  5
3D
102
{ACAD_REACTORS
330
2A
102
}
102
{ACAD_XDICTIONARY
360
2FF
102
}
330
2A
100
AcDbVisualStyle
  2
EdgeColorOff
 70
    22
 71
     2
 72
     2
 73
     0
 90
        0
 40
0.6
 41
30.0
 62
     5
 63
     7
421
 16777215
 74
     1
 91
        4
 64
     7
 65
   257
 75
     1
175
     1
 42
1.0
 92
        8
 66
     7
 43
1.0
 76
     1
 77
     6
 78
     2
 67
     7
 79
     5
170
     0
171
     0
290
     0
174
     0
 93
        1
 44
0.0
173
     0
291
     1
 45
0.0
1001
ACAD
1000
AcDbSavedByObjectVersion
1070
     0
  0
VISUALSTYLE
  5
39
102
{ACAD_REACTORS
330
2A
102
}
102
{ACAD_XDICTIONARY
360
2F7
102
}
330
2A
100
AcDbVisualStyle
  2
Facepattern
 70
    15
 71
     2
 72
     2
 73
     0
 90
        0
 40
0.6
 41
30.0
 62
     5
 63
     7
421
 16777215
 74
     1
 91
        4
 64
     7
 65
   257
 75
     1
175
     1
 42
1.0
 92
        8
 66
     7
 43
1.0
 76
     1
 77
     6
 78
     2
 67
     7
 79
     5
170
     0
171
     0
290
     0
174
     0
 93
        1
 44
0.0
173
     0
291
     1
 45
0.0
1001
ACAD
1000
AcDbSavedByObjectVersion
1070
     0
  0
VISUALSTYLE
  5
2B
102
{ACAD_REACTORS
330
2A
102
}
102
{ACAD_XDICTIONARY
360
2DB
102
}
330
2A
100
AcDbVisualStyle
  2
Flat
 70
     0
 71
     2
 72
     1
 73
     1
 90
        2
 40
0.6
 41
30.0
 62
     5
 63
     7
421
 16777215
 74
     0
 91
        0
 64
     7
 65
   257
 75
     1
175
     1
 42
1.0
 92
        8
 66
     7
 43
1.0
 76
     1
 77
     6
 78
     2
 67
     7
 79
     5
170
     0
171
     0
290
     0
174
     0
 93
       13
 44
0.0
173
     0
291
     1
 45
0.0
1001
ACAD
1000
AcDbSavedByObjectVersion
1070
     0
  0
VISUALSTYLE
  5
2C
102
{ACAD_REACTORS
330
2A
102
}
102
{ACAD_XDICTIONARY
360
2DD
102
}
330
2A
100
AcDbVisualStyle
  2
FlatWithEdges
 70
     1
 71
     2
 72
     1
 73
     1
 90
        2
 40
0.6
 41
30.0
 62
     5
 63
     7
421
 16777215
 74
     1
 91
        0
 64
     7
 65
   257
 75
     1
175
     1
 42
1.0
 92
        0
 66
   257
 43
1.0
 76
     1
 77
     6
 78
     2
 67
     7
 79
     5
170
     0
171
     0
290
     0
174
     0
 93
       13
 44
0.0
173
     0
291
     1
 45
0.0
1001
ACAD
1000
AcDbSavedByObjectVersion
1070
     0
  0
VISUALSTYLE
  5
2D
102
{ACAD_REACTORS
330
2A
102
}
102
{ACAD_XDICTIONARY
360
2DF
102
}
330
2A
100
AcDbVisualStyle
  2
Gouraud
 70
     2
 71
     2
 72
     2
 73
     1
 90
        2
 40
0.6
 41
30.0
 62
     5
 63
     7
421
 16777215
 74
     0
 91
        0
 64
     7
 65
   257
 75
     1
175
     1
 42
1.0
 92
        0
 66
     7
 43
1.0
 76
     1
 77
     6
 78
     2
 67
     7
 79
     5
170
     0
171
     0
290
     0
174
     0
 93
       13
 44
0.0
173
     0
291
     1
 45
0.0
1001
ACAD
1000
AcDbSavedByObjectVersion
1070
     0
  0
VISUALSTYLE
  5
2E
102
{ACAD_REACTORS
330
2A
102
}
102
{ACAD_XDICTIONARY
360
2E1
102
}
330
2A
100
AcDbVisualStyle
  2
GouraudWithEdges
 70
     3
 71
     2
 72
     2
 73
     1
 90
        2
 40
0.6
 41
30.0
 62
     5
 63
     7
421
 16777215
 74
     1
 91
        0
 64
     7
 65
   257
 75
     1
175
     1
 42
1.0
 92
        0
 66
   257
 43
1.0
 76
     1
 77
     6
 78
     2
 67
     7
 79
     5
170
     0
171
     0
290
     0
174
     0
 93
       13
 44
0.0
173
     0
291
     1
 45
0.0
1001
ACAD
1000
AcDbSavedByObjectVersion
1070
     0
  0
VISUALSTYLE
  5
31
102
{ACAD_REACTORS
330
2A
102
}
102
{ACAD_XDICTIONARY
360
2E7
102
}
330
2A
100
AcDbVisualStyle
  2
Hidden
 70
     6
 71
     1
 72
     2
 73
     2
 90
        0
 40
0.6
 41
30.0
 62
     5
 63
     7
421
 16777215
 74
     2
 91
        2
 64
     7
 65
   257
 75
     2
175
     1
 42
40.0
 92
        0
 66
   257
 43
1.0
 76
     1
 77
     6
 78
     2
 67
     7
 79
     3
170
     0
171
     0
290
     0
174
     0
 93
        1
 44
0.0
173
     0
291
     0
 45
0.0
1001
ACAD
1000
AcDbSavedByObjectVersion
1070
     0
  0
VISUALSTYLE
  5
3B
102
{ACAD_REACTORS
330
2A
102
}
102
{ACAD_XDICTIONARY
360
2FB
102
}
330
2A
100
AcDbVisualStyle
  2
JitterOff
 70
    20
 71
     2
 72
     2
 73
     0
 90
        0
 40
0.6
 41
30.0
 62
     5
 63
     7
421
 16777215
 74
     1
 91
        4
 64
     7
 65
   257
 75
     1
175
     1
 42
1.0
 92
       10
 66
     7
 43
1.0
 76
     1
 77
     6
 78
     2
 67
     7
 79
     5
170
     0
171
     0
290
     0
174
     0
 93
        1
 44
0.0
173
     0
291
     1
 45
0.0
1001
ACAD
1000
AcDbSavedByObjectVersion
1070
     0
  0
VISUALSTYLE
  5
38
102
{ACAD_REACTORS
330
2A
102
}
102
{ACAD_XDICTIONARY
360
2F5
102
}
330
2A
100
AcDbVisualStyle
  2
Linepattern
 70
    14
 71
     2
 72
     2
 73
     0
 90
        0
 40
0.6
 41
30.0
 62
     5
 63
     7
421
 16777215
 74
     1
 91
        4
 64
     7
 65
   257
 75
     7
175
     7
 42
1.0
 92
        8
 66
     7
 43
1.0
 76
     1
 77
     6
 78
     2
 67
     7
 79
     5
170
     0
171
     0
290
     0
174
     0
 93
        1
 44
0.0
173
     0
291
     1
 45
0.0
1001
ACAD
1000
AcDbSavedByObjectVersion
1070
     0
  0
VISUALSTYLE
  5
3C
102
{ACAD_REACTORS
330
2A
102
}
102
{ACAD_XDICTIONARY
360
2FD
102
}
330
2A
100
AcDbVisualStyle
  2
OverhangOff
 70
    21
 71
     2
 72
     2
 73
     0
 90
        0
 40
0.6
 41
30.0
 62
     5
 63
     7
421
 16777215
 74
     1
 91
        4
 64
     7
 65
   257
 75
     1
175
     1
 42
1.0
 92
        9
 66
     7
 43
1.0
 76
     1
 77
     6
 78
     2
 67
     7
 79
     5
170
     0
171
     0
290
     0
174
     0
 93
        1
 44
0.0
173
     0
291
     1
 45
0.0
1001
ACAD
1000
AcDbSavedByObjectVersion
1070
     0
  0
VISUALSTYLE
  5
33
102
{ACAD_REACTORS
330
2A
102
}
102
{ACAD_XDICTIONARY
360
2EB
102
}
330
2A
100
AcDbVisualStyle
  2
Realistic
 70
     8
 71
     2
 72
     3
 73
     0
 90
        2
 40
0.6
 41
30.0
 62
     5
 63
     7
421
 16777215
 74
     0
 91
        0
 64
     7
 65
   257
 75
     1
175
     1
 42
1.0
 92
        8
 66
   257
 43
1.0
 76
     1
 77
     6
 78
     2
 67
     7
 79
     3
170
     0
171
     0
290
     0
174
     0
 93
       13
 44
0.0
173
     0
291
     0
 45
0.0
1001
ACAD
1000
AcDbSavedByObjectVersion
1070
     0
  0
VISUALSTYLE
  5
42
102
{ACAD_REACTORS
330
2A
102
}
102
{ACAD_XDICTIONARY
360
309
102
}
330
2A
100
AcDbVisualStyle
  2
Shaded
 70
    27
 71
     2
 72
     2
 73
     1
 90
        2
 40
0.6
 41
30.0
 62
     5
 63
     7
421
 16777215
 74
     0
 91
        4
 64
     7
 65
   257
 75
     1
175
     1
 42
1.0
 92
        8
 66
   257
 43
1.0
 76
     1
 77
     6
 78
     2
 67
     8
425
  7895160
 79
     3
170
     0
171
     0
290
     0
174
     0
 93
        5
 44
0.0
173
     0
291
     0
 45
0.0
1001
ACAD
1000
AcDbSavedByObjectVersion
1070
     0
  0
VISUALSTYLE
  5
41
102
{ACAD_REACTORS
330
2A
102
}
102
{ACAD_XDICTIONARY
360
307
102
}
330
2A
100
AcDbVisualStyle
  2
Shaded with edges
 70
    26
 71
     2
 72
     2
 73
     1
 90
        2
 40
0.6
 41
30.0
 62
     5
 63
     7
421
 16777215
 74
     1
 91
       10
 64
     7
 65
   257
 75
     2
175
     1
 42
1.0
 92
        8
 66
   257
 43
1.0
 76
     1
 77
     6
 78
     2
 67
     7
 79
     3
170
     0
171
     0
290
     0
174
     0
 93
        5
 44
0.0
173
     0
291
     0
 45
0.0
1001
ACAD
1000
AcDbSavedByObjectVersion
1070
     0
  0
VISUALSTYLE
  5
3E
102
{ACAD_REACTORS
330
2A
102
}
102
{ACAD_XDICTIONARY
360
301
102
}
330
2A
100
AcDbVisualStyle
  2
Shades of Gray
 70
    23
 71
     2
 72
     2
 73
     3
 90
        0
 40
0.6
 41
30.0
 62
     5
 63
     7
421
 16777215
 74
     2
 91
        2
 64
     7
 65
     7
 75
     1
175
     1
 42
40.0
 92
        8
 66
     7
 43
1.0
 76
     1
 77
     6
 78
     2
 67
     7
 79
     3
170
     0
171
     0
290
     0
174
     0
 93
        1
 44
0.0
173
     0
291
     0
 45
0.0
1001
ACAD
1000
AcDbSavedByObjectVersion
1070
     0
  0
VISUALSTYLE
  5
3F
102
{ACAD_REACTORS
330
2A
102
}
102
{ACAD_XDICTIONARY
360
303
102
}
330
2A
100
AcDbVisualStyle
  2
Sketchy
 70
    24
 71
     1
 72
     2
 73
     2
 90
        0
 40
0.6
 41
30.0
 62
     5
 63
     7
421
 16777215
 74
     2
 91
        2
 64
     7
 65
     7
 75
     1
175
     1
 42
40.0
 92
       11
 66
     7
 43
1.0
 76
     1
 77
     6
 78
     2
 67
     7
 79
     6
170
     0
171
     0
290
     0
174
     0
 93
        1
 44
0.0
173
     0
291
     0
 45
0.0
1001
ACAD
1000
AcDbSavedByObjectVersion
1070
     0
  0
VISUALSTYLE
  5
37
102
{ACAD_REACTORS
330
2A
102
}
102
{ACAD_XDICTIONARY
360
2F3
102
}
330
2A
100
AcDbVisualStyle
  2
Thicken
 70
    13
 71
     2
 72
     2
 73
     0
 90
        0
 40
0.6
 41
30.0
 62
     5
 63
     7
421
 16777215
 74
     1
 91
        4
 64
     7
 65
   257
 75
     1
175
     1
 42
1.0
 92
       12
 66
     7
 43
1.0
 76
     1
 77
     6
 78
     2
 67
     7
 79
     5
170
     0
171
     0
290
     0
174
     0
 93
        1
 44
0.0
173
     0
291
     1
 45
0.0
1001
ACAD
1000
AcDbSavedByObjectVersion
1070
     0
  0
VISUALSTYLE
  5
30
102
{ACAD_REACTORS
330
2A
102
}
102
{ACAD_XDICTIONARY
360
2E5
102
}
330
2A
100
AcDbVisualStyle
  2
Wireframe
 70
     5
 71
     0
 72
     2
 73
     0
 90
        0
 40
0.6
 41
30.0
 62
     5
 63
     7
421
 16777215
 74
     1
 91
        4
 64
     7
 65
   257
 75
     1
175
     1
 42
1.0
 92
        0
 66
   257
 43
1.0
 76
     1
 77
     6
 78
     2
 67
     7
 79
     3
170
     0
171
     0
290
     0
174
     0
 93
        1
 44
0.0
173
     0
291
     0
 45
0.0
1001
ACAD
1000
AcDbSavedByObjectVersion
1070
     0
  0
VISUALSTYLE
  5
40
102
{ACAD_REACTORS
330
2A
102
}
102
{ACAD_XDICTIONARY
360
305
102
}
330
2A
100
AcDbVisualStyle
  2
X-Ray
 70
    25
 71
     2
 72
     2
 73
     1
 90
        1
 40
0.5
 41
30.0
 62
     5
 63
     7
421
 16777215
 74
     1
 91
        0
 64
     7
 65
   257
 75
     1
175
     1
 42
1.0
 92
        8
 66
     7
 43
1.0
 76
     1
 77
     6
 78
     2
 67
     7
 79
     3
170
     0
171
     0
290
     0
174
     0
 93
       13
 44
0.0
173
     0
291
     0
 45
0.0
1001
ACAD
1000
AcDbSavedByObjectVersion
1070
     0
  0
DICTIONARYVAR
  5
2D8
102
{ACAD_REACTORS
330
2D7
102
}
330
2D7
100
DictionaryVariables
280
     0
  1
1:1
  0
DICTIONARYVAR
  5
319
102
{ACAD_REACTORS
330
2D7
102
}
330
2D7
100
DictionaryVariables
280
     0
  1
Standard
  0
DICTIONARYVAR
  5
318
102
{ACAD_REACTORS
330
2D7
102
}
330
2D7
100
DictionaryVariables
280
     0
  1
Standard
  0
DICTIONARYVAR
  5
2D9
102
{ACAD_REACTORS
330
2D7
102
}
330
2D7
100
DictionaryVariables
280
     0
  1
1
  0
DICTIONARYVAR
  5
2DA
102
{ACAD_REACTORS
330
2D7
102
}
330
2D7
100
DictionaryVariables
280
     0
  1
2
  0
DICTIONARY
  5
30D
330
45
100
AcDbDictionary
280
     1
281
     1
  3
ACAD_XREC_ROUNDTRIP
360
30E
  0
DICTIONARY
  5
30B
330
44
100
AcDbDictionary
280
     1
281
     1
  3
ACAD_XREC_ROUNDTRIP
360
30C
  0
DICTIONARY
  5
30F
330
46
100
AcDbDictionary
280
     1
281
     1
  3
ACAD_XREC_ROUNDTRIP
360
310
  0
DICTIONARY
  5
315
330
6C
100
AcDbDictionary
280
     1
281
     1
  3
ACAD_XREC_ROUNDTRIP
360
316
  0
DICTIONARY
  5
311
330
6A
100
AcDbDictionary
280
     1
281
     1
  3
ACAD_ROUNDTRIP_2008_TABLESTYLE_CELLSTYLEMAP
360
313
  3
ACAD_XREC_ROUNDTRIP
360
312
  0
DICTIONARY
  5
2E3
330
2F
100
AcDbDictionary
280
     1
281
     1
  3
ACAD_XREC_ROUNDTRIP
360
2E4
  0
DICTIONARY
  5
2E9
330
32
100
AcDbDictionary
280
     1
281
     1
  3
ACAD_XREC_ROUNDTRIP
360
2EA
  0
DICTIONARY
  5
2F1
330
36
100
AcDbDictionary
280
     1
281
     1
  3
ACAD_XREC_ROUNDTRIP
360
2F2
  0
DICTIONARY
  5
2F9
330
3A
100
AcDbDictionary
280
     1
281
     1
  3
ACAD_XREC_ROUNDTRIP
360
2FA
  0
DICTIONARY
  5
2ED
330
34
100
AcDbDictionary
280
     1
281
     1
  3
ACAD_XREC_ROUNDTRIP
360
2EE
  0
DICTIONARY
  5
2EF
330
35
100
AcDbDictionary
280
     1
281
     1
  3
ACAD_XREC_ROUNDTRIP
360
2F0
  0
DICTIONARY
  5
2FF
330
3D
100
AcDbDictionary
280
     1
281
     1
  3
ACAD_XREC_ROUNDTRIP
360
300
  0
DICTIONARY
  5
2F7
330
39
100
AcDbDictionary
280
     1
281
     1
  3
ACAD_XREC_ROUNDTRIP
360
2F8
  0
DICTIONARY
  5
2DB
330
2B
100
AcDbDictionary
280
     1
281
     1
  3
ACAD_XREC_ROUNDTRIP
360
2DC
  0
DICTIONARY
  5
2DD
330
2C
100
AcDbDictionary
280
     1
281
     1
  3
ACAD_XREC_ROUNDTRIP
360
2DE
  0
DICTIONARY
  5
2DF
330
2D
100
AcDbDictionary
280
     1
281
     1
  3
ACAD_XREC_ROUNDTRIP
360
2E0
  0
DICTIONARY
  5
2E1
330
2E
100
AcDbDictionary
280
     1
281
     1
  3
ACAD_XREC_ROUNDTRIP
360
2E2
  0
DICTIONARY
  5
2E7
330
31
100
AcDbDictionary
280
     1
281
     1
  3
ACAD_XREC_ROUNDTRIP
360
2E8
  0
DICTIONARY
  5
2FB
330
3B
100
AcDbDictionary
280
     1
281
     1
  3
ACAD_XREC_ROUNDTRIP
360
2FC
  0
DICTIONARY
  5
2F5
330
38
100
AcDbDictionary
280
     1
281
     1
  3
ACAD_XREC_ROUNDTRIP
360
2F6
  0
DICTIONARY
  5
2FD
330
3C
100
AcDbDictionary
280
     1
281
     1
  3
ACAD_XREC_ROUNDTRIP
360
2FE
  0
DICTIONARY
  5
2EB
330
33
100
AcDbDictionary
280
     1
281
     1
  3
ACAD_XREC_ROUNDTRIP
360
2EC
  0
DICTIONARY
  5
309
330
42
100
AcDbDictionary
280
     1
281
     1
  3
ACAD_XREC_ROUNDTRIP
360
30A
  0
DICTIONARY
  5
307
330
41
100
AcDbDictionary
280
     1
281
     1
  3
ACAD_XREC_ROUNDTRIP
360
308
  0
DICTIONARY
  5
301
330
3E
100
AcDbDictionary
280
     1
281
     1
  3
ACAD_XREC_ROUNDTRIP
360
302
  0
DICTIONARY
  5
303
330
3F
100
AcDbDictionary
280
     1
281
     1
  3
ACAD_XREC_ROUNDTRIP
360
304
  0
DICTIONARY
  5
2F3
330
37
100
AcDbDictionary
280
     1
281
     1
  3
ACAD_XREC_ROUNDTRIP
360
2F4
  0
DICTIONARY
  5
2E5
330
30
100
AcDbDictionary
280
     1
281
     1
  3
ACAD_XREC_ROUNDTRIP
360
2E6
  0
DICTIONARY
  5
305
330
40
100
AcDbDictionary
280
     1
281
     1
  3
ACAD_XREC_ROUNDTRIP
360
306
  0
XRECORD
  5
30E
102
{ACAD_REACTORS
330
30D
102
}
330
30D
100
AcDbXrecord
280
     1
102
MATERIAL
148
0.0
149
0.0
149
0.0
 93
        0
 94
      127
282
     0
 72
     1
 77
     1
171
     1
175
     1
179
     1
273
     0
  0
XRECORD
  5
30C
102
{ACAD_REACTORS
330
30B
102
}
330
30B
100
AcDbXrecord
280
     1
102
MATERIAL
148
0.0
149
0.0
149
0.0
 93
        0
 94
      127
282
     0
 72
     1
 77
     1
171
     1
175
     1
179
     1
273
     0
  0
XRECORD
  5
310
102
{ACAD_REACTORS
330
30F
102
}
330
30F
100
AcDbXrecord
280
     1
102
MATERIAL
148
0.0
149
0.0
149
0.0
 93
        0
 94
      127
282
     0
 72
     1
 77
     1
171
     1
175
     1
179
     1
273
     0
  0
XRECORD
  5
316
102
{ACAD_REACTORS
330
315
102
}
330
315
100
AcDbXrecord
280
     1
102
ACAD_ROUNDTRIP_2010_MLEADER_STYLE
  0
CELLSTYLEMAP
  5
313
102
{ACAD_REACTORS
330
311
102
}
330
311
100
AcDbCellStyleMap
 90
        3
300
CELLSTYLE
  1
TABLEFORMAT_BEGIN
 90
        5
170
     1
 91
        0
 92
    32768
 62
   257
 93
        1
300
CONTENTFORMAT
  1
CONTENTFORMAT_BEGIN
 90
        0
 91
        0
 92
        4
 93
        0
300

 40
0.0
140
1.0
 94
        5
 62
     0
340
11
144
0.25
309
CONTENTFORMAT_END
171
     1
301
MARGIN
  1
CELLMARGIN_BEGIN
 40
0.06
 40
0.06
 40
0.06
 40
0.06
 40
0.06
 40
0.06
309
CELLMARGIN_END
 94
        6
 95
        1
302
GRIDFORMAT
  1
GRIDFORMAT_BEGIN
 90
        0
 91
        1
 62
     0
 92
       -2
340
14
 93
        0
 40
0.045
309
GRIDFORMAT_END
 95
        2
302
GRIDFORMAT
  1
GRIDFORMAT_BEGIN
 90
        0
 91
        1
 62
     0
 92
       -2
340
14
 93
        0
 40
0.045
309
GRIDFORMAT_END
 95
        4
302
GRIDFORMAT
  1
GRIDFORMAT_BEGIN
 90
        0
 91
        1
 62
     0
 92
       -2
340
14
 93
        0
 40
0.045
309
GRIDFORMAT_END
 95
        8
302
GRIDFORMAT
  1
GRIDFORMAT_BEGIN
 90
        0
 91
        1
 62
     0
 92
       -2
340
14
 93
        0
 40
0.045
309
GRIDFORMAT_END
 95
       16
302
GRIDFORMAT
  1
GRIDFORMAT_BEGIN
 90
        0
 91
        1
 62
     0
 92
       -2
340
14
 93
        0
 40
0.045
309
GRIDFORMAT_END
 95
       32
302
GRIDFORMAT
  1
GRIDFORMAT_BEGIN
 90
        0
 91
        1
 62
     0
 92
       -2
340
14
 93
        0
 40
0.045
309
GRIDFORMAT_END
309
TABLEFORMAT_END
  1
CELLSTYLE_BEGIN
 90
        1
 91
        1
300
_TITLE
309
CELLSTYLE_END
300
CELLSTYLE
  1
TABLEFORMAT_BEGIN
 90
        5
170
     1
 91
        0
 92
        0
 62
   257
 93
        1
300
CONTENTFORMAT
  1
CONTENTFORMAT_BEGIN
 90
        0
 91
        0
 92
        4
 93
        0
300

 40
0.0
140
1.0
 94
        5
 62
     0
340
11
144
0.18
309
CONTENTFORMAT_END
171
     1
301
MARGIN
  1
CELLMARGIN_BEGIN
 40
0.06
 40
0.06
 40
0.06
 40
0.06
 40
0.06
 40
0.06
309
CELLMARGIN_END
 94
        6
 95
        1
302
GRIDFORMAT
  1
GRIDFORMAT_BEGIN
 90
        0
 91
        1
 62
     0
 92
       -2
340
14
 93
        0
 40
0.045
309
GRIDFORMAT_END
 95
        2
302
GRIDFORMAT
  1
GRIDFORMAT_BEGIN
 90
        0
 91
        1
 62
     0
 92
       -2
340
14
 93
        0
 40
0.045
309
GRIDFORMAT_END
 95
        4
302
GRIDFORMAT
  1
GRIDFORMAT_BEGIN
 90
        0
 91
        1
 62
     0
 92
       -2
340
14
 93
        0
 40
0.045
309
GRIDFORMAT_END
 95
        8
302
GRIDFORMAT
  1
GRIDFORMAT_BEGIN
 90
        0
 91
        1
 62
     0
 92
       -2
340
14
 93
        0
 40
0.045
309
GRIDFORMAT_END
 95
       16
302
GRIDFORMAT
  1
GRIDFORMAT_BEGIN
 90
        0
 91
        1
 62
     0
 92
       -2
340
14
 93
        0
 40
0.045
309
GRIDFORMAT_END
 95
       32
302
GRIDFORMAT
  1
GRIDFORMAT_BEGIN
 90
        0
 91
        1
 62
     0
 92
       -2
340
14
 93
        0
 40
0.045
309
GRIDFORMAT_END
309
TABLEFORMAT_END
  1
CELLSTYLE_BEGIN
 90
        2
 91
        1
300
_HEADER
309
CELLSTYLE_END
300
CELLSTYLE
  1
TABLEFORMAT_BEGIN
 90
        5
170
     1
 91
        0
 92
        0
 62
   257
 93
        1
300
CONTENTFORMAT
  1
CONTENTFORMAT_BEGIN
 90
        0
 91
        0
 92
        4
 93
        0
300

 40
0.0
140
1.0
 94
        2
 62
     0
340
11
144
0.18
309
CONTENTFORMAT_END
171
     1
301
MARGIN
  1
CELLMARGIN_BEGIN
 40
0.06
 40
0.06
 40
0.06
 40
0.06
 40
0.06
 40
0.06
309
CELLMARGIN_END
 94
        6
 95
        1
302
GRIDFORMAT
  1
GRIDFORMAT_BEGIN
 90
        0
 91
        1
 62
     0
 92
       -2
340
14
 93
        0
 40
0.045
309
GRIDFORMAT_END
 95
        2
302
GRIDFORMAT
  1
GRIDFORMAT_BEGIN
 90
        0
 91
        1
 62
     0
 92
       -2
340
14
 93
        0
 40
0.045
309
GRIDFORMAT_END
 95
        4
302
GRIDFORMAT
  1
GRIDFORMAT_BEGIN
 90
        0
 91
        1
 62
     0
 92
       -2
340
14
 93
        0
 40
0.045
309
GRIDFORMAT_END
 95
        8
302
GRIDFORMAT
  1
GRIDFORMAT_BEGIN
 90
        0
 91
        1
 62
     0
 92
       -2
340
14
 93
        0
 40
0.045
309
GRIDFORMAT_END
 95
       16
302
GRIDFORMAT
  1
GRIDFORMAT_BEGIN
 90
        0
 91
        1
 62
     0
 92
       -2
340
14
 93
        0
 40
0.045
309
GRIDFORMAT_END
 95
       32
302
GRIDFORMAT
  1
GRIDFORMAT_BEGIN
 90
        0
 91
        1
 62
     0
 92
       -2
340
14
 93
        0
 40
0.045
309
GRIDFORMAT_END
309
TABLEFORMAT_END
  1
CELLSTYLE_BEGIN
 90
        3
 91
        2
300
_DATA
309
CELLSTYLE_END
  0
XRECORD
  5
312
102
{ACAD_REACTORS
330
311
102
}
330
311
100
AcDbXrecord
280
     1
102
ACAD_ROUNDTRIP_PRE2007_TABLESTYLE
 90
        4
 91
        0
  1

 92
        4
 93
        0
  2

 94
        4
 95
        0
  3

  0
XRECORD
  5
2E4
102
{ACAD_REACTORS
330
2E3
102
}
330
2E3
100
AcDbXrecord
280
     1
102
RTVSPropertyOp0
 70
     1
102
RTVSPropertyOp1
 70
     1
102
RTVSPropertyOp2
 70
     1
102
RTVSPropertyOp3
 70
     1
102
RTVSPropertyOp4
 70
     1
102
RTVSPropertyOp5
 70
     1
102
RTVSPropertyOp6
 70
     1
102
RTVSPropertyOp7
 70
     1
102
RTVSPropertyOp8
 70
     1
102
RTVSPropertyOp9
 70
     1
102
RTVSPropertyOp10
 70
     1
102
RTVSPropertyOp11
 70
     1
102
RTVSPropertyOp12
 70
     1
102
RTVSPropertyOp13
 70
     1
102
RTVSPropertyOp14
 70
     1
102
RTVSPropertyOp15
 70
     1
102
RTVSPropertyOp16
 70
     1
102
RTVSPropertyOp17
 70
     1
102
RTVSPropertyOp18
 70
     1
102
RTVSPropertyOp19
 70
     1
102
RTVSPropertyOp20
 70
     1
102
RTVSPropertyOp21
 70
     1
102
RTVSPropertyOp22
 70
     1
102
RTVSPropertyOp23
 70
     1
102
RTVSPropertyOp24
 70
     1
102
RTVSPropertyOp25
 70
     1
102
RTVSPropertyOp26
 70
     1
102
RTVSPropertyOp27
 70
     1
102
RTVSPropertyOp28
 70
     1
102
RTVSPropertyOp29
 70
     1
102
RTVSPropertyOp30
 70
     1
102
RTVSPropertyOp31
 70
     1
102
RTVSPropertyOp32
 70
     1
102
RTVSPropertyOp33
 70
     1
102
RTVSPropertyOp34
 70
     1
102
RTVSPropertyOp35
 70
     1
102
RTVSPropertyOp36
 70
     1
102
RTVSPropertyOp37
 70
     1
102
RTVSPropertyOp38
 70
     1
102
RTVSPropertyOp39
 70
     1
102
RTVSPropertyOp40
 70
     1
102
RTVSPropertyOp41
 70
     1
102
RTVSPropertyOp42
 70
     1
102
RTVSPropertyOp43
 70
     1
102
RTVSPropertyOp44
 70
     1
102
RTVSPropertyOp45
 70
     1
102
RTVSPropertyOp46
 70
     1
102
RTVSPropertyOp47
 70
     1
102
RTVSPropertyOp48
 70
     1
102
RTVSPropertyOp49
 70
     1
102
RTVSPropertyOp50
 70
     1
102
RTVSPropertyOp51
 70
     0
102
RTVSPropertyOp52
 70
     0
102
RTVSPropertyOp53
 70
     1
102
RTVSPropertyOp54
 70
     1
102
RTVSPropertyOp55
 70
     1
102
RTVSPropertyOp56
 70
     1
102
RTVSPropertyOp57
 70
     1
102
RTVSPost2010Prop28
280
     1
102
RTVSPost2010PropOp28
 70
     1
102
RTVSPost2010Prop29
280
     1
102
RTVSPost2010PropOp29
 70
     1
102
RTVSPost2010Prop30
280
     0
102
RTVSPost2010PropOp30
 70
     1
102
RTVSPost2010Prop31
280
     0
102
RTVSPost2010PropOp31
 70
     1
102
RTVSPost2010Prop32
280
     0
102
RTVSPost2010PropOp32
 70
     1
102
RTVSPost2010Prop33
280
     0
102
RTVSPost2010PropOp33
 70
     1
102
RTVSPost2010Prop34
280
     0
102
RTVSPost2010PropOp34
 70
     1
102
RTVSPost2010Prop35
280
     0
102
RTVSPost2010PropOp35
 70
     1
102
RTVSPost2010Prop36
280
     0
102
RTVSPost2010PropOp36
 70
     1
102
RTVSPost2010Prop37
 90
       50
102
RTVSPost2010PropOp37
 70
     1
102
RTVSPost2010Prop38
140
0.0
102
RTVSPost2010PropOp38
 70
     1
102
RTVSPost2010Prop39
140
1.0
102
RTVSPost2010PropOp39
 70
     1
102
RTVSPost2010Prop40
 90
        0
102
RTVSPost2010PropOp40
 70
     1
102
RTVSPost2010Prop41ColorIndex
 90
       18
102
RTVSPost2010Prop41ColorRGB
 90
        0
102
RTVSPost2010PropOp41
 70
     1
102
RTVSPost2010Prop42
 90
       50
102
RTVSPost2010PropOp42
 70
     1
102
RTVSPost2010Prop43
 90
        3
102
RTVSPost2010PropOp43
 70
     1
102
RTVSPost2010Prop44ColorIndex
 90
        5
102
RTVSPost2010Prop44ColorRGB
 90
      255
102
RTVSPost2010PropOp44
 70
     1
102
RTVSPost2010Prop45
280
     0
102
RTVSPost2010PropOp45
 70
     1
102
RTVSPost2010Prop46
 90
       50
102
RTVSPost2010PropOp46
 70
     1
102
RTVSPost2010Prop47
 90
       50
102
RTVSPost2010PropOp47
 70
     1
102
RTVSPost2010Prop48
 90
       50
102
RTVSPost2010PropOp48
 70
     1
102
RTVSPost2010Prop49
280
     0
102
RTVSPost2010PropOp49
 70
     1
102
RTVSPost2010Prop50
 90
       50
102
RTVSPost2010PropOp50
 70
     1
102
RTVSPost2010Prop51ColorIndex
 90
      256
102
RTVSPost2010Prop51ColorRGB
 90
-16777216
102
RTVSPost2010PropOp51
 70
     0
102
RTVSPost2010Prop52
140
1.0
102
RTVSPost2010PropOp52
 70
     0
102
RTVSPost2010Prop53
 90
        2
102
RTVSPost2010PropOp53
 70
     1
102
RTVSPost2010Prop54
  1
strokes_ogs.tif
102
RTVSPost2010PropOp54
 70
     1
102
RTVSPost2010Prop55
280
     0
102
RTVSPost2010PropOp55
 70
     1
102
RTVSPost2010Prop56
140
1.0
102
RTVSPost2010PropOp56
 70
     1
102
RTVSPost2010Prop57
140
1.0
102
RTVSPost2010PropOp57
 70
     1
  0
XRECORD
  5
2EA
102
{ACAD_REACTORS
330
2E9
102
}
330
2E9
100
AcDbXrecord
280
     1
102
RTVSPropertyOp0
 70
     1
102
RTVSPropertyOp1
 70
     1
102
RTVSPropertyOp2
 70
     1
102
RTVSPropertyOp3
 70
     1
102
RTVSPropertyOp4
 70
     1
102
RTVSPropertyOp5
 70
     1
102
RTVSPropertyOp6
 70
     1
102
RTVSPropertyOp7
 70
     1
102
RTVSPropertyOp8
 70
     1
102
RTVSPropertyOp9
 70
     1
102
RTVSPropertyOp10
 70
     1
102
RTVSPropertyOp11
 70
     1
102
RTVSPropertyOp12
 70
     1
102
RTVSPropertyOp13
 70
     1
102
RTVSPropertyOp14
 70
     1
102
RTVSPropertyOp15
 70
     1
102
RTVSPropertyOp16
 70
     1
102
RTVSPropertyOp17
 70
     1
102
RTVSPropertyOp18
 70
     1
102
RTVSPropertyOp19
 70
     1
102
RTVSPropertyOp20
 70
     1
102
RTVSPropertyOp21
 70
     1
102
RTVSPropertyOp22
 70
     1
102
RTVSPropertyOp23
 70
     1
102
RTVSPropertyOp24
 70
     1
102
RTVSPropertyOp25
 70
     1
102
RTVSPropertyOp26
 70
     1
102
RTVSPropertyOp27
 70
     1
102
RTVSPropertyOp28
 70
     1
102
RTVSPropertyOp29
 70
     1
102
RTVSPropertyOp30
 70
     1
102
RTVSPropertyOp31
 70
     1
102
RTVSPropertyOp32
 70
     1
102
RTVSPropertyOp33
 70
     1
102
RTVSPropertyOp34
 70
     1
102
RTVSPropertyOp35
 70
     1
102
RTVSPropertyOp36
 70
     1
102
RTVSPropertyOp37
 70
     1
102
RTVSPropertyOp38
 70
     1
102
RTVSPropertyOp39
 70
     1
102
RTVSPropertyOp40
 70
     1
102
RTVSPropertyOp41
 70
     1
102
RTVSPropertyOp42
 70
     1
102
RTVSPropertyOp43
 70
     1
102
RTVSPropertyOp44
 70
     1
102
RTVSPropertyOp45
 70
     1
102
RTVSPropertyOp46
 70
     1
102
RTVSPropertyOp47
 70
     1
102
RTVSPropertyOp48
 70
     1
102
RTVSPropertyOp49
 70
     1
102
RTVSPropertyOp50
 70
     1
102
RTVSPropertyOp51
 70
     0
102
RTVSPropertyOp52
 70
     0
102
RTVSPropertyOp53
 70
     1
102
RTVSPropertyOp54
 70
     1
102
RTVSPropertyOp55
 70
     1
102
RTVSPropertyOp56
 70
     1
102
RTVSPropertyOp57
 70
     1
102
RTVSPost2010Prop28
280
     0
102
RTVSPost2010PropOp28
 70
     1
102
RTVSPost2010Prop29
280
     1
102
RTVSPost2010PropOp29
 70
     1
102
RTVSPost2010Prop30
280
     1
102
RTVSPost2010PropOp30
 70
     1
102
RTVSPost2010Prop31
280
     0
102
RTVSPost2010PropOp31
 70
     1
102
RTVSPost2010Prop32
280
     0
102
RTVSPost2010PropOp32
 70
     1
102
RTVSPost2010Prop33
280
     0
102
RTVSPost2010PropOp33
 70
     1
102
RTVSPost2010Prop34
280
     0
102
RTVSPost2010PropOp34
 70
     1
102
RTVSPost2010Prop35
280
     0
102
RTVSPost2010PropOp35
 70
     1
102
RTVSPost2010Prop36
280
     0
102
RTVSPost2010PropOp36
 70
     1
102
RTVSPost2010Prop37
 90
       50
102
RTVSPost2010PropOp37
 70
     1
102
RTVSPost2010Prop38
140
0.0
102
RTVSPost2010PropOp38
 70
     1
102
RTVSPost2010Prop39
140
1.0
102
RTVSPost2010PropOp39
 70
     1
102
RTVSPost2010Prop40
 90
        0
102
RTVSPost2010PropOp40
 70
     1
102
RTVSPost2010Prop41ColorIndex
 90
       18
102
RTVSPost2010Prop41ColorRGB
 90
        0
102
RTVSPost2010PropOp41
 70
     1
102
RTVSPost2010Prop42
 90
       50
102
RTVSPost2010PropOp42
 70
     1
102
RTVSPost2010Prop43
 90
        3
102
RTVSPost2010PropOp43
 70
     1
102
RTVSPost2010Prop44ColorIndex
 90
        5
102
RTVSPost2010Prop44ColorRGB
 90
      255
102
RTVSPost2010PropOp44
 70
     1
102
RTVSPost2010Prop45
280
     0
102
RTVSPost2010PropOp45
 70
     1
102
RTVSPost2010Prop46
 90
       50
102
RTVSPost2010PropOp46
 70
     1
102
RTVSPost2010Prop47
 90
       50
102
RTVSPost2010PropOp47
 70
     1
102
RTVSPost2010Prop48
 90
       50
102
RTVSPost2010PropOp48
 70
     1
102
RTVSPost2010Prop49
280
     0
102
RTVSPost2010PropOp49
 70
     1
102
RTVSPost2010Prop50
 90
       50
102
RTVSPost2010PropOp50
 70
     1
102
RTVSPost2010Prop51ColorIndex
 90
      256
102
RTVSPost2010Prop51ColorRGB
 90
-16777216
102
RTVSPost2010PropOp51
 70
     0
102
RTVSPost2010Prop52
140
1.0
102
RTVSPost2010PropOp52
 70
     0
102
RTVSPost2010Prop53
 90
        2
102
RTVSPost2010PropOp53
 70
     1
102
RTVSPost2010Prop54
  1
strokes_ogs.tif
102
RTVSPost2010PropOp54
 70
     1
102
RTVSPost2010Prop55
280
     0
102
RTVSPost2010PropOp55
 70
     1
102
RTVSPost2010Prop56
140
1.0
102
RTVSPost2010PropOp56
 70
     1
102
RTVSPost2010Prop57
140
1.0
102
RTVSPost2010PropOp57
 70
     1
  0
XRECORD
  5
2F2
102
{ACAD_REACTORS
330
2F1
102
}
330
2F1
100
AcDbXrecord
280
     1
102
RTVSPropertyOp0
 70
     1
102
RTVSPropertyOp1
 70
     1
102
RTVSPropertyOp2
 70
     1
102
RTVSPropertyOp3
 70
     1
102
RTVSPropertyOp4
 70
     1
102
RTVSPropertyOp5
 70
     1
102
RTVSPropertyOp6
 70
     1
102
RTVSPropertyOp7
 70
     1
102
RTVSPropertyOp8
 70
     1
102
RTVSPropertyOp9
 70
     1
102
RTVSPropertyOp10
 70
     1
102
RTVSPropertyOp11
 70
     1
102
RTVSPropertyOp12
 70
     1
102
RTVSPropertyOp13
 70
     1
102
RTVSPropertyOp14
 70
     1
102
RTVSPropertyOp15
 70
     1
102
RTVSPropertyOp16
 70
     1
102
RTVSPropertyOp17
 70
     1
102
RTVSPropertyOp18
 70
     1
102
RTVSPropertyOp19
 70
     1
102
RTVSPropertyOp20
 70
     1
102
RTVSPropertyOp21
 70
     1
102
RTVSPropertyOp22
 70
     1
102
RTVSPropertyOp23
 70
     1
102
RTVSPropertyOp24
 70
     1
102
RTVSPropertyOp25
 70
     1
102
RTVSPropertyOp26
 70
     1
102
RTVSPropertyOp27
 70
     1
102
RTVSPropertyOp28
 70
     1
102
RTVSPropertyOp29
 70
     1
102
RTVSPropertyOp30
 70
     1
102
RTVSPropertyOp31
 70
     1
102
RTVSPropertyOp32
 70
     1
102
RTVSPropertyOp33
 70
     1
102
RTVSPropertyOp34
 70
     1
102
RTVSPropertyOp35
 70
     1
102
RTVSPropertyOp36
 70
     1
102
RTVSPropertyOp37
 70
     1
102
RTVSPropertyOp38
 70
     1
102
RTVSPropertyOp39
 70
     1
102
RTVSPropertyOp40
 70
     1
102
RTVSPropertyOp41
 70
     1
102
RTVSPropertyOp42
 70
     1
102
RTVSPropertyOp43
 70
     1
102
RTVSPropertyOp44
 70
     1
102
RTVSPropertyOp45
 70
     1
102
RTVSPropertyOp46
 70
     1
102
RTVSPropertyOp47
 70
     1
102
RTVSPropertyOp48
 70
     1
102
RTVSPropertyOp49
 70
     1
102
RTVSPropertyOp50
 70
     1
102
RTVSPropertyOp51
 70
     0
102
RTVSPropertyOp52
 70
     0
102
RTVSPropertyOp53
 70
     1
102
RTVSPropertyOp54
 70
     1
102
RTVSPropertyOp55
 70
     1
102
RTVSPropertyOp56
 70
     1
102
RTVSPropertyOp57
 70
     1
102
RTVSPost2010Prop28
280
     0
102
RTVSPost2010PropOp28
 70
     1
102
RTVSPost2010Prop29
280
     1
102
RTVSPost2010PropOp29
 70
     1
102
RTVSPost2010Prop30
280
     1
102
RTVSPost2010PropOp30
 70
     1
102
RTVSPost2010Prop31
280
     0
102
RTVSPost2010PropOp31
 70
     1
102
RTVSPost2010Prop32
280
     0
102
RTVSPost2010PropOp32
 70
     1
102
RTVSPost2010Prop33
280
     0
102
RTVSPost2010PropOp33
 70
     1
102
RTVSPost2010Prop34
280
     0
102
RTVSPost2010PropOp34
 70
     1
102
RTVSPost2010Prop35
280
     0
102
RTVSPost2010PropOp35
 70
     1
102
RTVSPost2010Prop36
280
     0
102
RTVSPost2010PropOp36
 70
     1
102
RTVSPost2010Prop37
 90
       50
102
RTVSPost2010PropOp37
 70
     1
102
RTVSPost2010Prop38
140
0.0
102
RTVSPost2010PropOp38
 70
     1
102
RTVSPost2010Prop39
140
1.0
102
RTVSPost2010PropOp39
 70
     1
102
RTVSPost2010Prop40
 90
        0
102
RTVSPost2010PropOp40
 70
     1
102
RTVSPost2010Prop41ColorIndex
 90
       18
102
RTVSPost2010Prop41ColorRGB
 90
        0
102
RTVSPost2010PropOp41
 70
     1
102
RTVSPost2010Prop42
 90
       50
102
RTVSPost2010PropOp42
 70
     1
102
RTVSPost2010Prop43
 90
        3
102
RTVSPost2010PropOp43
 70
     1
102
RTVSPost2010Prop44ColorIndex
 90
        5
102
RTVSPost2010Prop44ColorRGB
 90
      255
102
RTVSPost2010PropOp44
 70
     1
102
RTVSPost2010Prop45
280
     0
102
RTVSPost2010PropOp45
 70
     1
102
RTVSPost2010Prop46
 90
       50
102
RTVSPost2010PropOp46
 70
     1
102
RTVSPost2010Prop47
 90
       50
102
RTVSPost2010PropOp47
 70
     1
102
RTVSPost2010Prop48
 90
       50
102
RTVSPost2010PropOp48
 70
     1
102
RTVSPost2010Prop49
280
     0
102
RTVSPost2010PropOp49
 70
     1
102
RTVSPost2010Prop50
 90
       50
102
RTVSPost2010PropOp50
 70
     1
102
RTVSPost2010Prop51ColorIndex
 90
      256
102
RTVSPost2010Prop51ColorRGB
 90
-16777216
102
RTVSPost2010PropOp51
 70
     0
102
RTVSPost2010Prop52
140
1.0
102
RTVSPost2010PropOp52
 70
     0
102
RTVSPost2010Prop53
 90
        2
102
RTVSPost2010PropOp53
 70
     1
102
RTVSPost2010Prop54
  1
strokes_ogs.tif
102
RTVSPost2010PropOp54
 70
     1
102
RTVSPost2010Prop55
280
     0
102
RTVSPost2010PropOp55
 70
     1
102
RTVSPost2010Prop56
140
1.0
102
RTVSPost2010PropOp56
 70
     1
102
RTVSPost2010Prop57
140
1.0
102
RTVSPost2010PropOp57
 70
     1
  0
XRECORD
  5
2FA
102
{ACAD_REACTORS
330
2F9
102
}
330
2F9
100
AcDbXrecord
280
     1
102
RTVSPropertyOp0
 70
     1
102
RTVSPropertyOp1
 70
     1
102
RTVSPropertyOp2
 70
     1
102
RTVSPropertyOp3
 70
     1
102
RTVSPropertyOp4
 70
     1
102
RTVSPropertyOp5
 70
     1
102
RTVSPropertyOp6
 70
     1
102
RTVSPropertyOp7
 70
     1
102
RTVSPropertyOp8
 70
     1
102
RTVSPropertyOp9
 70
     1
102
RTVSPropertyOp10
 70
     1
102
RTVSPropertyOp11
 70
     1
102
RTVSPropertyOp12
 70
     1
102
RTVSPropertyOp13
 70
     1
102
RTVSPropertyOp14
 70
     1
102
RTVSPropertyOp15
 70
     1
102
RTVSPropertyOp16
 70
     1
102
RTVSPropertyOp17
 70
     1
102
RTVSPropertyOp18
 70
     1
102
RTVSPropertyOp19
 70
     1
102
RTVSPropertyOp20
 70
     1
102
RTVSPropertyOp21
 70
     1
102
RTVSPropertyOp22
 70
     1
102
RTVSPropertyOp23
 70
     1
102
RTVSPropertyOp24
 70
     1
102
RTVSPropertyOp25
 70
     1
102
RTVSPropertyOp26
 70
     1
102
RTVSPropertyOp27
 70
     1
102
RTVSPropertyOp28
 70
     1
102
RTVSPropertyOp29
 70
     1
102
RTVSPropertyOp30
 70
     1
102
RTVSPropertyOp31
 70
     1
102
RTVSPropertyOp32
 70
     1
102
RTVSPropertyOp33
 70
     1
102
RTVSPropertyOp34
 70
     1
102
RTVSPropertyOp35
 70
     1
102
RTVSPropertyOp36
 70
     1
102
RTVSPropertyOp37
 70
     1
102
RTVSPropertyOp38
 70
     1
102
RTVSPropertyOp39
 70
     1
102
RTVSPropertyOp40
 70
     1
102
RTVSPropertyOp41
 70
     1
102
RTVSPropertyOp42
 70
     1
102
RTVSPropertyOp43
 70
     1
102
RTVSPropertyOp44
 70
     1
102
RTVSPropertyOp45
 70
     1
102
RTVSPropertyOp46
 70
     1
102
RTVSPropertyOp47
 70
     1
102
RTVSPropertyOp48
 70
     1
102
RTVSPropertyOp49
 70
     1
102
RTVSPropertyOp50
 70
     1
102
RTVSPropertyOp51
 70
     0
102
RTVSPropertyOp52
 70
     0
102
RTVSPropertyOp53
 70
     1
102
RTVSPropertyOp54
 70
     1
102
RTVSPropertyOp55
 70
     1
102
RTVSPropertyOp56
 70
     1
102
RTVSPropertyOp57
 70
     1
102
RTVSPost2010Prop28
280
     0
102
RTVSPost2010PropOp28
 70
     1
102
RTVSPost2010Prop29
280
     1
102
RTVSPost2010PropOp29
 70
     1
102
RTVSPost2010Prop30
280
     1
102
RTVSPost2010PropOp30
 70
     1
102
RTVSPost2010Prop31
280
     0
102
RTVSPost2010PropOp31
 70
     1
102
RTVSPost2010Prop32
280
     0
102
RTVSPost2010PropOp32
 70
     1
102
RTVSPost2010Prop33
280
     0
102
RTVSPost2010PropOp33
 70
     1
102
RTVSPost2010Prop34
280
     0
102
RTVSPost2010PropOp34
 70
     1
102
RTVSPost2010Prop35
280
     0
102
RTVSPost2010PropOp35
 70
     1
102
RTVSPost2010Prop36
280
     0
102
RTVSPost2010PropOp36
 70
     1
102
RTVSPost2010Prop37
 90
       50
102
RTVSPost2010PropOp37
 70
     1
102
RTVSPost2010Prop38
140
0.0
102
RTVSPost2010PropOp38
 70
     1
102
RTVSPost2010Prop39
140
1.0
102
RTVSPost2010PropOp39
 70
     1
102
RTVSPost2010Prop40
 90
        0
102
RTVSPost2010PropOp40
 70
     1
102
RTVSPost2010Prop41ColorIndex
 90
       18
102
RTVSPost2010Prop41ColorRGB
 90
        0
102
RTVSPost2010PropOp41
 70
     1
102
RTVSPost2010Prop42
 90
       50
102
RTVSPost2010PropOp42
 70
     1
102
RTVSPost2010Prop43
 90
        3
102
RTVSPost2010PropOp43
 70
     1
102
RTVSPost2010Prop44ColorIndex
 90
        5
102
RTVSPost2010Prop44ColorRGB
 90
      255
102
RTVSPost2010PropOp44
 70
     1
102
RTVSPost2010Prop45
280
     0
102
RTVSPost2010PropOp45
 70
     1
102
RTVSPost2010Prop46
 90
       50
102
RTVSPost2010PropOp46
 70
     1
102
RTVSPost2010Prop47
 90
       50
102
RTVSPost2010PropOp47
 70
     1
102
RTVSPost2010Prop48
 90
       50
102
RTVSPost2010PropOp48
 70
     1
102
RTVSPost2010Prop49
280
     0
102
RTVSPost2010PropOp49
 70
     1
102
RTVSPost2010Prop50
 90
       50
102
RTVSPost2010PropOp50
 70
     1
102
RTVSPost2010Prop51ColorIndex
 90
      256
102
RTVSPost2010Prop51ColorRGB
 90
-16777216
102
RTVSPost2010PropOp51
 70
     0
102
RTVSPost2010Prop52
140
1.0
102
RTVSPost2010PropOp52
 70
     0
102
RTVSPost2010Prop53
 90
        2
102
RTVSPost2010PropOp53
 70
     1
102
RTVSPost2010Prop54
  1
strokes_ogs.tif
102
RTVSPost2010PropOp54
 70
     1
102
RTVSPost2010Prop55
280
     0
102
RTVSPost2010PropOp55
 70
     1
102
RTVSPost2010Prop56
140
1.0
102
RTVSPost2010PropOp56
 70
     1
102
RTVSPost2010Prop57
140
1.0
102
RTVSPost2010PropOp57
 70
     1
  0
XRECORD
  5
2EE
102
{ACAD_REACTORS
330
2ED
102
}
330
2ED
100
AcDbXrecord
280
     1
102
RTVSPropertyOp0
 70
     1
102
RTVSPropertyOp1
 70
     1
102
RTVSPropertyOp2
 70
     1
102
RTVSPropertyOp3
 70
     1
102
RTVSPropertyOp4
 70
     1
102
RTVSPropertyOp5
 70
     1
102
RTVSPropertyOp6
 70
     1
102
RTVSPropertyOp7
 70
     1
102
RTVSPropertyOp8
 70
     1
102
RTVSPropertyOp9
 70
     1
102
RTVSPropertyOp10
 70
     1
102
RTVSPropertyOp11
 70
     1
102
RTVSPropertyOp12
 70
     1
102
RTVSPropertyOp13
 70
     1
102
RTVSPropertyOp14
 70
     1
102
RTVSPropertyOp15
 70
     1
102
RTVSPropertyOp16
 70
     1
102
RTVSPropertyOp17
 70
     1
102
RTVSPropertyOp18
 70
     1
102
RTVSPropertyOp19
 70
     1
102
RTVSPropertyOp20
 70
     1
102
RTVSPropertyOp21
 70
     1
102
RTVSPropertyOp22
 70
     1
102
RTVSPropertyOp23
 70
     1
102
RTVSPropertyOp24
 70
     1
102
RTVSPropertyOp25
 70
     1
102
RTVSPropertyOp26
 70
     1
102
RTVSPropertyOp27
 70
     1
102
RTVSPropertyOp28
 70
     1
102
RTVSPropertyOp29
 70
     1
102
RTVSPropertyOp30
 70
     1
102
RTVSPropertyOp31
 70
     1
102
RTVSPropertyOp32
 70
     1
102
RTVSPropertyOp33
 70
     1
102
RTVSPropertyOp34
 70
     1
102
RTVSPropertyOp35
 70
     1
102
RTVSPropertyOp36
 70
     1
102
RTVSPropertyOp37
 70
     1
102
RTVSPropertyOp38
 70
     1
102
RTVSPropertyOp39
 70
     1
102
RTVSPropertyOp40
 70
     1
102
RTVSPropertyOp41
 70
     1
102
RTVSPropertyOp42
 70
     1
102
RTVSPropertyOp43
 70
     1
102
RTVSPropertyOp44
 70
     1
102
RTVSPropertyOp45
 70
     1
102
RTVSPropertyOp46
 70
     1
102
RTVSPropertyOp47
 70
     1
102
RTVSPropertyOp48
 70
     1
102
RTVSPropertyOp49
 70
     1
102
RTVSPropertyOp50
 70
     1
102
RTVSPropertyOp51
 70
     0
102
RTVSPropertyOp52
 70
     0
102
RTVSPropertyOp53
 70
     1
102
RTVSPropertyOp54
 70
     1
102
RTVSPropertyOp55
 70
     1
102
RTVSPropertyOp56
 70
     1
102
RTVSPropertyOp57
 70
     1
102
RTVSPost2010Prop28
280
     0
102
RTVSPost2010PropOp28
 70
     1
102
RTVSPost2010Prop29
280
     1
102
RTVSPost2010PropOp29
 70
     1
102
RTVSPost2010Prop30
280
     1
102
RTVSPost2010PropOp30
 70
     1
102
RTVSPost2010Prop31
280
     0
102
RTVSPost2010PropOp31
 70
     1
102
RTVSPost2010Prop32
280
     0
102
RTVSPost2010PropOp32
 70
     1
102
RTVSPost2010Prop33
280
     0
102
RTVSPost2010PropOp33
 70
     1
102
RTVSPost2010Prop34
280
     0
102
RTVSPost2010PropOp34
 70
     1
102
RTVSPost2010Prop35
280
     0
102
RTVSPost2010PropOp35
 70
     1
102
RTVSPost2010Prop36
280
     0
102
RTVSPost2010PropOp36
 70
     1
102
RTVSPost2010Prop37
 90
       50
102
RTVSPost2010PropOp37
 70
     1
102
RTVSPost2010Prop38
140
0.0
102
RTVSPost2010PropOp38
 70
     1
102
RTVSPost2010Prop39
140
1.0
102
RTVSPost2010PropOp39
 70
     1
102
RTVSPost2010Prop40
 90
        0
102
RTVSPost2010PropOp40
 70
     1
102
RTVSPost2010Prop41ColorIndex
 90
       18
102
RTVSPost2010Prop41ColorRGB
 90
        0
102
RTVSPost2010PropOp41
 70
     1
102
RTVSPost2010Prop42
 90
       50
102
RTVSPost2010PropOp42
 70
     1
102
RTVSPost2010Prop43
 90
        3
102
RTVSPost2010PropOp43
 70
     1
102
RTVSPost2010Prop44ColorIndex
 90
        5
102
RTVSPost2010Prop44ColorRGB
 90
      255
102
RTVSPost2010PropOp44
 70
     1
102
RTVSPost2010Prop45
280
     0
102
RTVSPost2010PropOp45
 70
     1
102
RTVSPost2010Prop46
 90
       50
102
RTVSPost2010PropOp46
 70
     1
102
RTVSPost2010Prop47
 90
       50
102
RTVSPost2010PropOp47
 70
     1
102
RTVSPost2010Prop48
 90
       50
102
RTVSPost2010PropOp48
 70
     1
102
RTVSPost2010Prop49
280
     0
102
RTVSPost2010PropOp49
 70
     1
102
RTVSPost2010Prop50
 90
       50
102
RTVSPost2010PropOp50
 70
     1
102
RTVSPost2010Prop51ColorIndex
 90
      256
102
RTVSPost2010Prop51ColorRGB
 90
-16777216
102
RTVSPost2010PropOp51
 70
     0
102
RTVSPost2010Prop52
140
1.0
102
RTVSPost2010PropOp52
 70
     0
102
RTVSPost2010Prop53
 90
        2
102
RTVSPost2010PropOp53
 70
     1
102
RTVSPost2010Prop54
  1
strokes_ogs.tif
102
RTVSPost2010PropOp54
 70
     1
102
RTVSPost2010Prop55
280
     0
102
RTVSPost2010PropOp55
 70
     1
102
RTVSPost2010Prop56
140
1.0
102
RTVSPost2010PropOp56
 70
     1
102
RTVSPost2010Prop57
140
1.0
102
RTVSPost2010PropOp57
 70
     1
  0
XRECORD
  5
2F0
102
{ACAD_REACTORS
330
2EF
102
}
330
2EF
100
AcDbXrecord
280
     1
102
RTVSPropertyOp0
 70
     1
102
RTVSPropertyOp1
 70
     1
102
RTVSPropertyOp2
 70
     1
102
RTVSPropertyOp3
 70
     1
102
RTVSPropertyOp4
 70
     1
102
RTVSPropertyOp5
 70
     1
102
RTVSPropertyOp6
 70
     1
102
RTVSPropertyOp7
 70
     1
102
RTVSPropertyOp8
 70
     1
102
RTVSPropertyOp9
 70
     1
102
RTVSPropertyOp10
 70
     1
102
RTVSPropertyOp11
 70
     1
102
RTVSPropertyOp12
 70
     1
102
RTVSPropertyOp13
 70
     1
102
RTVSPropertyOp14
 70
     1
102
RTVSPropertyOp15
 70
     1
102
RTVSPropertyOp16
 70
     1
102
RTVSPropertyOp17
 70
     1
102
RTVSPropertyOp18
 70
     1
102
RTVSPropertyOp19
 70
     1
102
RTVSPropertyOp20
 70
     1
102
RTVSPropertyOp21
 70
     1
102
RTVSPropertyOp22
 70
     1
102
RTVSPropertyOp23
 70
     1
102
RTVSPropertyOp24
 70
     1
102
RTVSPropertyOp25
 70
     1
102
RTVSPropertyOp26
 70
     1
102
RTVSPropertyOp27
 70
     1
102
RTVSPropertyOp28
 70
     1
102
RTVSPropertyOp29
 70
     1
102
RTVSPropertyOp30
 70
     1
102
RTVSPropertyOp31
 70
     1
102
RTVSPropertyOp32
 70
     1
102
RTVSPropertyOp33
 70
     1
102
RTVSPropertyOp34
 70
     1
102
RTVSPropertyOp35
 70
     1
102
RTVSPropertyOp36
 70
     1
102
RTVSPropertyOp37
 70
     1
102
RTVSPropertyOp38
 70
     1
102
RTVSPropertyOp39
 70
     1
102
RTVSPropertyOp40
 70
     1
102
RTVSPropertyOp41
 70
     1
102
RTVSPropertyOp42
 70
     1
102
RTVSPropertyOp43
 70
     1
102
RTVSPropertyOp44
 70
     1
102
RTVSPropertyOp45
 70
     1
102
RTVSPropertyOp46
 70
     1
102
RTVSPropertyOp47
 70
     1
102
RTVSPropertyOp48
 70
     1
102
RTVSPropertyOp49
 70
     1
102
RTVSPropertyOp50
 70
     1
102
RTVSPropertyOp51
 70
     0
102
RTVSPropertyOp52
 70
     0
102
RTVSPropertyOp53
 70
     1
102
RTVSPropertyOp54
 70
     1
102
RTVSPropertyOp55
 70
     1
102
RTVSPropertyOp56
 70
     1
102
RTVSPropertyOp57
 70
     1
102
RTVSPost2010Prop28
280
     0
102
RTVSPost2010PropOp28
 70
     1
102
RTVSPost2010Prop29
280
     1
102
RTVSPost2010PropOp29
 70
     1
102
RTVSPost2010Prop30
280
     1
102
RTVSPost2010PropOp30
 70
     1
102
RTVSPost2010Prop31
280
     0
102
RTVSPost2010PropOp31
 70
     1
102
RTVSPost2010Prop32
280
     0
102
RTVSPost2010PropOp32
 70
     1
102
RTVSPost2010Prop33
280
     0
102
RTVSPost2010PropOp33
 70
     1
102
RTVSPost2010Prop34
280
     0
102
RTVSPost2010PropOp34
 70
     1
102
RTVSPost2010Prop35
280
     0
102
RTVSPost2010PropOp35
 70
     1
102
RTVSPost2010Prop36
280
     0
102
RTVSPost2010PropOp36
 70
     1
102
RTVSPost2010Prop37
 90
       50
102
RTVSPost2010PropOp37
 70
     1
102
RTVSPost2010Prop38
140
0.0
102
RTVSPost2010PropOp38
 70
     1
102
RTVSPost2010Prop39
140
1.0
102
RTVSPost2010PropOp39
 70
     1
102
RTVSPost2010Prop40
 90
        0
102
RTVSPost2010PropOp40
 70
     1
102
RTVSPost2010Prop41ColorIndex
 90
       18
102
RTVSPost2010Prop41ColorRGB
 90
        0
102
RTVSPost2010PropOp41
 70
     1
102
RTVSPost2010Prop42
 90
       50
102
RTVSPost2010PropOp42
 70
     1
102
RTVSPost2010Prop43
 90
        3
102
RTVSPost2010PropOp43
 70
     1
102
RTVSPost2010Prop44ColorIndex
 90
        5
102
RTVSPost2010Prop44ColorRGB
 90
      255
102
RTVSPost2010PropOp44
 70
     1
102
RTVSPost2010Prop45
280
     0
102
RTVSPost2010PropOp45
 70
     1
102
RTVSPost2010Prop46
 90
       50
102
RTVSPost2010PropOp46
 70
     1
102
RTVSPost2010Prop47
 90
       50
102
RTVSPost2010PropOp47
 70
     1
102
RTVSPost2010Prop48
 90
       50
102
RTVSPost2010PropOp48
 70
     1
102
RTVSPost2010Prop49
280
     0
102
RTVSPost2010PropOp49
 70
     1
102
RTVSPost2010Prop50
 90
       50
102
RTVSPost2010PropOp50
 70
     1
102
RTVSPost2010Prop51ColorIndex
 90
      256
102
RTVSPost2010Prop51ColorRGB
 90
-16777216
102
RTVSPost2010PropOp51
 70
     0
102
RTVSPost2010Prop52
140
1.0
102
RTVSPost2010PropOp52
 70
     0
102
RTVSPost2010Prop53
 90
        2
102
RTVSPost2010PropOp53
 70
     1
102
RTVSPost2010Prop54
  1
strokes_ogs.tif
102
RTVSPost2010PropOp54
 70
     1
102
RTVSPost2010Prop55
280
     0
102
RTVSPost2010PropOp55
 70
     1
102
RTVSPost2010Prop56
140
1.0
102
RTVSPost2010PropOp56
 70
     1
102
RTVSPost2010Prop57
140
1.0
102
RTVSPost2010PropOp57
 70
     1
  0
XRECORD
  5
300
102
{ACAD_REACTORS
330
2FF
102
}
330
2FF
100
AcDbXrecord
280
     1
102
RTVSPropertyOp0
 70
     0
102
RTVSPropertyOp1
 70
     0
102
RTVSPropertyOp2
 70
     0
102
RTVSPropertyOp3
 70
     0
102
RTVSPropertyOp4
 70
     0
102
RTVSPropertyOp5
 70
     0
102
RTVSPropertyOp6
 70
     0
102
RTVSPropertyOp7
 70
     0
102
RTVSPropertyOp8
 70
     0
102
RTVSPropertyOp9
 70
     0
102
RTVSPropertyOp10
 70
     0
102
RTVSPropertyOp11
 70
     0
102
RTVSPropertyOp12
 70
     0
102
RTVSPropertyOp13
 70
     0
102
RTVSPropertyOp14
 70
     2
102
RTVSPropertyOp15
 70
     0
102
RTVSPropertyOp16
 70
     0
102
RTVSPropertyOp17
 70
     0
102
RTVSPropertyOp18
 70
     0
102
RTVSPropertyOp19
 70
     0
102
RTVSPropertyOp20
 70
     0
102
RTVSPropertyOp21
 70
     0
102
RTVSPropertyOp22
 70
     0
102
RTVSPropertyOp23
 70
     0
102
RTVSPropertyOp24
 70
     0
102
RTVSPropertyOp25
 70
     0
102
RTVSPropertyOp26
 70
     0
102
RTVSPropertyOp27
 70
     0
102
RTVSPropertyOp28
 70
     0
102
RTVSPropertyOp29
 70
     0
102
RTVSPropertyOp30
 70
     0
102
RTVSPropertyOp31
 70
     0
102
RTVSPropertyOp32
 70
     0
102
RTVSPropertyOp33
 70
     0
102
RTVSPropertyOp34
 70
     0
102
RTVSPropertyOp35
 70
     0
102
RTVSPropertyOp36
 70
     0
102
RTVSPropertyOp37
 70
     0
102
RTVSPropertyOp38
 70
     0
102
RTVSPropertyOp39
 70
     0
102
RTVSPropertyOp40
 70
     0
102
RTVSPropertyOp41
 70
     0
102
RTVSPropertyOp42
 70
     0
102
RTVSPropertyOp43
 70
     0
102
RTVSPropertyOp44
 70
     0
102
RTVSPropertyOp45
 70
     0
102
RTVSPropertyOp46
 70
     0
102
RTVSPropertyOp47
 70
     0
102
RTVSPropertyOp48
 70
     0
102
RTVSPropertyOp49
 70
     0
102
RTVSPropertyOp50
 70
     0
102
RTVSPropertyOp51
 70
     0
102
RTVSPropertyOp52
 70
     0
102
RTVSPropertyOp53
 70
     0
102
RTVSPropertyOp54
 70
     0
102
RTVSPropertyOp55
 70
     0
102
RTVSPropertyOp56
 70
     0
102
RTVSPropertyOp57
 70
     0
102
RTVSPost2010Prop28
280
     0
102
RTVSPost2010PropOp28
 70
     0
102
RTVSPost2010Prop29
280
     1
102
RTVSPost2010PropOp29
 70
     0
102
RTVSPost2010Prop30
280
     1
102
RTVSPost2010PropOp30
 70
     0
102
RTVSPost2010Prop31
280
     0
102
RTVSPost2010PropOp31
 70
     0
102
RTVSPost2010Prop32
280
     0
102
RTVSPost2010PropOp32
 70
     0
102
RTVSPost2010Prop33
280
     0
102
RTVSPost2010PropOp33
 70
     0
102
RTVSPost2010Prop34
280
     0
102
RTVSPost2010PropOp34
 70
     0
102
RTVSPost2010Prop35
280
     0
102
RTVSPost2010PropOp35
 70
     0
102
RTVSPost2010Prop36
280
     0
102
RTVSPost2010PropOp36
 70
     0
102
RTVSPost2010Prop37
 90
       50
102
RTVSPost2010PropOp37
 70
     0
102
RTVSPost2010Prop38
140
0.0
102
RTVSPost2010PropOp38
 70
     0
102
RTVSPost2010Prop39
140
1.0
102
RTVSPost2010PropOp39
 70
     0
102
RTVSPost2010Prop40
 90
        0
102
RTVSPost2010PropOp40
 70
     0
102
RTVSPost2010Prop41ColorIndex
 90
       18
102
RTVSPost2010Prop41ColorRGB
 90
        0
102
RTVSPost2010PropOp41
 70
     0
102
RTVSPost2010Prop42
 90
       50
102
RTVSPost2010PropOp42
 70
     0
102
RTVSPost2010Prop43
 90
        3
102
RTVSPost2010PropOp43
 70
     0
102
RTVSPost2010Prop44ColorIndex
 90
        5
102
RTVSPost2010Prop44ColorRGB
 90
      255
102
RTVSPost2010PropOp44
 70
     0
102
RTVSPost2010Prop45
280
     0
102
RTVSPost2010PropOp45
 70
     0
102
RTVSPost2010Prop46
 90
       50
102
RTVSPost2010PropOp46
 70
     0
102
RTVSPost2010Prop47
 90
       50
102
RTVSPost2010PropOp47
 70
     0
102
RTVSPost2010Prop48
 90
       50
102
RTVSPost2010PropOp48
 70
     0
102
RTVSPost2010Prop49
280
     0
102
RTVSPost2010PropOp49
 70
     0
102
RTVSPost2010Prop50
 90
       50
102
RTVSPost2010PropOp50
 70
     0
102
RTVSPost2010Prop51ColorIndex
 90
      256
102
RTVSPost2010Prop51ColorRGB
 90
-16777216
102
RTVSPost2010PropOp51
 70
     0
102
RTVSPost2010Prop52
140
1.0
102
RTVSPost2010PropOp52
 70
     0
102
RTVSPost2010Prop53
 90
        2
102
RTVSPost2010PropOp53
 70
     0
102
RTVSPost2010Prop54
  1
strokes_ogs.tif
102
RTVSPost2010PropOp54
 70
     0
102
RTVSPost2010Prop55
280
     0
102
RTVSPost2010PropOp55
 70
     0
102
RTVSPost2010Prop56
140
1.0
102
RTVSPost2010PropOp56
 70
     0
102
RTVSPost2010Prop57
140
1.0
102
RTVSPost2010PropOp57
 70
     0
  0
XRECORD
  5
2F8
102
{ACAD_REACTORS
330
2F7
102
}
330
2F7
100
AcDbXrecord
280
     1
102
RTVSPropertyOp0
 70
     1
102
RTVSPropertyOp1
 70
     1
102
RTVSPropertyOp2
 70
     1
102
RTVSPropertyOp3
 70
     1
102
RTVSPropertyOp4
 70
     1
102
RTVSPropertyOp5
 70
     1
102
RTVSPropertyOp6
 70
     1
102
RTVSPropertyOp7
 70
     1
102
RTVSPropertyOp8
 70
     1
102
RTVSPropertyOp9
 70
     1
102
RTVSPropertyOp10
 70
     1
102
RTVSPropertyOp11
 70
     1
102
RTVSPropertyOp12
 70
     1
102
RTVSPropertyOp13
 70
     1
102
RTVSPropertyOp14
 70
     1
102
RTVSPropertyOp15
 70
     1
102
RTVSPropertyOp16
 70
     1
102
RTVSPropertyOp17
 70
     1
102
RTVSPropertyOp18
 70
     1
102
RTVSPropertyOp19
 70
     1
102
RTVSPropertyOp20
 70
     1
102
RTVSPropertyOp21
 70
     1
102
RTVSPropertyOp22
 70
     1
102
RTVSPropertyOp23
 70
     1
102
RTVSPropertyOp24
 70
     1
102
RTVSPropertyOp25
 70
     1
102
RTVSPropertyOp26
 70
     1
102
RTVSPropertyOp27
 70
     1
102
RTVSPropertyOp28
 70
     1
102
RTVSPropertyOp29
 70
     1
102
RTVSPropertyOp30
 70
     1
102
RTVSPropertyOp31
 70
     1
102
RTVSPropertyOp32
 70
     1
102
RTVSPropertyOp33
 70
     1
102
RTVSPropertyOp34
 70
     1
102
RTVSPropertyOp35
 70
     1
102
RTVSPropertyOp36
 70
     1
102
RTVSPropertyOp37
 70
     1
102
RTVSPropertyOp38
 70
     1
102
RTVSPropertyOp39
 70
     1
102
RTVSPropertyOp40
 70
     1
102
RTVSPropertyOp41
 70
     1
102
RTVSPropertyOp42
 70
     1
102
RTVSPropertyOp43
 70
     1
102
RTVSPropertyOp44
 70
     1
102
RTVSPropertyOp45
 70
     1
102
RTVSPropertyOp46
 70
     1
102
RTVSPropertyOp47
 70
     1
102
RTVSPropertyOp48
 70
     1
102
RTVSPropertyOp49
 70
     1
102
RTVSPropertyOp50
 70
     1
102
RTVSPropertyOp51
 70
     0
102
RTVSPropertyOp52
 70
     0
102
RTVSPropertyOp53
 70
     1
102
RTVSPropertyOp54
 70
     1
102
RTVSPropertyOp55
 70
     1
102
RTVSPropertyOp56
 70
     1
102
RTVSPropertyOp57
 70
     1
102
RTVSPost2010Prop28
280
     0
102
RTVSPost2010PropOp28
 70
     1
102
RTVSPost2010Prop29
280
     1
102
RTVSPost2010PropOp29
 70
     1
102
RTVSPost2010Prop30
280
     1
102
RTVSPost2010PropOp30
 70
     1
102
RTVSPost2010Prop31
280
     0
102
RTVSPost2010PropOp31
 70
     1
102
RTVSPost2010Prop32
280
     0
102
RTVSPost2010PropOp32
 70
     1
102
RTVSPost2010Prop33
280
     0
102
RTVSPost2010PropOp33
 70
     1
102
RTVSPost2010Prop34
280
     0
102
RTVSPost2010PropOp34
 70
     1
102
RTVSPost2010Prop35
280
     0
102
RTVSPost2010PropOp35
 70
     1
102
RTVSPost2010Prop36
280
     0
102
RTVSPost2010PropOp36
 70
     1
102
RTVSPost2010Prop37
 90
       50
102
RTVSPost2010PropOp37
 70
     1
102
RTVSPost2010Prop38
140
0.0
102
RTVSPost2010PropOp38
 70
     1
102
RTVSPost2010Prop39
140
1.0
102
RTVSPost2010PropOp39
 70
     1
102
RTVSPost2010Prop40
 90
        0
102
RTVSPost2010PropOp40
 70
     1
102
RTVSPost2010Prop41ColorIndex
 90
       18
102
RTVSPost2010Prop41ColorRGB
 90
        0
102
RTVSPost2010PropOp41
 70
     1
102
RTVSPost2010Prop42
 90
       50
102
RTVSPost2010PropOp42
 70
     1
102
RTVSPost2010Prop43
 90
        3
102
RTVSPost2010PropOp43
 70
     1
102
RTVSPost2010Prop44ColorIndex
 90
        5
102
RTVSPost2010Prop44ColorRGB
 90
      255
102
RTVSPost2010PropOp44
 70
     1
102
RTVSPost2010Prop45
280
     0
102
RTVSPost2010PropOp45
 70
     1
102
RTVSPost2010Prop46
 90
       50
102
RTVSPost2010PropOp46
 70
     1
102
RTVSPost2010Prop47
 90
       50
102
RTVSPost2010PropOp47
 70
     1
102
RTVSPost2010Prop48
 90
       50
102
RTVSPost2010PropOp48
 70
     1
102
RTVSPost2010Prop49
280
     0
102
RTVSPost2010PropOp49
 70
     1
102
RTVSPost2010Prop50
 90
       50
102
RTVSPost2010PropOp50
 70
     1
102
RTVSPost2010Prop51ColorIndex
 90
      256
102
RTVSPost2010Prop51ColorRGB
 90
-16777216
102
RTVSPost2010PropOp51
 70
     0
102
RTVSPost2010Prop52
140
1.0
102
RTVSPost2010PropOp52
 70
     0
102
RTVSPost2010Prop53
 90
        2
102
RTVSPost2010PropOp53
 70
     1
102
RTVSPost2010Prop54
  1
strokes_ogs.tif
102
RTVSPost2010PropOp54
 70
     1
102
RTVSPost2010Prop55
280
     0
102
RTVSPost2010PropOp55
 70
     1
102
RTVSPost2010Prop56
140
1.0
102
RTVSPost2010PropOp56
 70
     1
102
RTVSPost2010Prop57
140
1.0
102
RTVSPost2010PropOp57
 70
     1
  0
XRECORD
  5
2DC
102
{ACAD_REACTORS
330
2DB
102
}
330
2DB
100
AcDbXrecord
280
     1
102
RTVSPropertyOp0
 70
     1
102
RTVSPropertyOp1
 70
     1
102
RTVSPropertyOp2
 70
     1
102
RTVSPropertyOp3
 70
     1
102
RTVSPropertyOp4
 70
     1
102
RTVSPropertyOp5
 70
     1
102
RTVSPropertyOp6
 70
     1
102
RTVSPropertyOp7
 70
     1
102
RTVSPropertyOp8
 70
     1
102
RTVSPropertyOp9
 70
     1
102
RTVSPropertyOp10
 70
     1
102
RTVSPropertyOp11
 70
     1
102
RTVSPropertyOp12
 70
     1
102
RTVSPropertyOp13
 70
     1
102
RTVSPropertyOp14
 70
     1
102
RTVSPropertyOp15
 70
     1
102
RTVSPropertyOp16
 70
     1
102
RTVSPropertyOp17
 70
     1
102
RTVSPropertyOp18
 70
     1
102
RTVSPropertyOp19
 70
     1
102
RTVSPropertyOp20
 70
     1
102
RTVSPropertyOp21
 70
     1
102
RTVSPropertyOp22
 70
     1
102
RTVSPropertyOp23
 70
     1
102
RTVSPropertyOp24
 70
     1
102
RTVSPropertyOp25
 70
     1
102
RTVSPropertyOp26
 70
     1
102
RTVSPropertyOp27
 70
     1
102
RTVSPropertyOp28
 70
     1
102
RTVSPropertyOp29
 70
     1
102
RTVSPropertyOp30
 70
     1
102
RTVSPropertyOp31
 70
     1
102
RTVSPropertyOp32
 70
     1
102
RTVSPropertyOp33
 70
     1
102
RTVSPropertyOp34
 70
     1
102
RTVSPropertyOp35
 70
     1
102
RTVSPropertyOp36
 70
     1
102
RTVSPropertyOp37
 70
     1
102
RTVSPropertyOp38
 70
     1
102
RTVSPropertyOp39
 70
     1
102
RTVSPropertyOp40
 70
     1
102
RTVSPropertyOp41
 70
     1
102
RTVSPropertyOp42
 70
     1
102
RTVSPropertyOp43
 70
     1
102
RTVSPropertyOp44
 70
     1
102
RTVSPropertyOp45
 70
     1
102
RTVSPropertyOp46
 70
     1
102
RTVSPropertyOp47
 70
     1
102
RTVSPropertyOp48
 70
     1
102
RTVSPropertyOp49
 70
     1
102
RTVSPropertyOp50
 70
     1
102
RTVSPropertyOp51
 70
     0
102
RTVSPropertyOp52
 70
     0
102
RTVSPropertyOp53
 70
     1
102
RTVSPropertyOp54
 70
     1
102
RTVSPropertyOp55
 70
     1
102
RTVSPropertyOp56
 70
     1
102
RTVSPropertyOp57
 70
     1
102
RTVSPost2010Prop28
280
     0
102
RTVSPost2010PropOp28
 70
     1
102
RTVSPost2010Prop29
280
     1
102
RTVSPost2010PropOp29
 70
     1
102
RTVSPost2010Prop30
280
     1
102
RTVSPost2010PropOp30
 70
     1
102
RTVSPost2010Prop31
280
     0
102
RTVSPost2010PropOp31
 70
     1
102
RTVSPost2010Prop32
280
     0
102
RTVSPost2010PropOp32
 70
     1
102
RTVSPost2010Prop33
280
     0
102
RTVSPost2010PropOp33
 70
     1
102
RTVSPost2010Prop34
280
     0
102
RTVSPost2010PropOp34
 70
     1
102
RTVSPost2010Prop35
280
     0
102
RTVSPost2010PropOp35
 70
     1
102
RTVSPost2010Prop36
280
     0
102
RTVSPost2010PropOp36
 70
     1
102
RTVSPost2010Prop37
 90
       50
102
RTVSPost2010PropOp37
 70
     1
102
RTVSPost2010Prop38
140
0.0
102
RTVSPost2010PropOp38
 70
     1
102
RTVSPost2010Prop39
140
1.0
102
RTVSPost2010PropOp39
 70
     1
102
RTVSPost2010Prop40
 90
        0
102
RTVSPost2010PropOp40
 70
     1
102
RTVSPost2010Prop41ColorIndex
 90
       18
102
RTVSPost2010Prop41ColorRGB
 90
        0
102
RTVSPost2010PropOp41
 70
     1
102
RTVSPost2010Prop42
 90
       50
102
RTVSPost2010PropOp42
 70
     1
102
RTVSPost2010Prop43
 90
        3
102
RTVSPost2010PropOp43
 70
     1
102
RTVSPost2010Prop44ColorIndex
 90
        5
102
RTVSPost2010Prop44ColorRGB
 90
      255
102
RTVSPost2010PropOp44
 70
     1
102
RTVSPost2010Prop45
280
     0
102
RTVSPost2010PropOp45
 70
     1
102
RTVSPost2010Prop46
 90
       50
102
RTVSPost2010PropOp46
 70
     1
102
RTVSPost2010Prop47
 90
       50
102
RTVSPost2010PropOp47
 70
     1
102
RTVSPost2010Prop48
 90
       50
102
RTVSPost2010PropOp48
 70
     1
102
RTVSPost2010Prop49
280
     0
102
RTVSPost2010PropOp49
 70
     1
102
RTVSPost2010Prop50
 90
       50
102
RTVSPost2010PropOp50
 70
     1
102
RTVSPost2010Prop51ColorIndex
 90
      256
102
RTVSPost2010Prop51ColorRGB
 90
-16777216
102
RTVSPost2010PropOp51
 70
     0
102
RTVSPost2010Prop52
140
1.0
102
RTVSPost2010PropOp52
 70
     0
102
RTVSPost2010Prop53
 90
        2
102
RTVSPost2010PropOp53
 70
     1
102
RTVSPost2010Prop54
  1
strokes_ogs.tif
102
RTVSPost2010PropOp54
 70
     1
102
RTVSPost2010Prop55
280
     0
102
RTVSPost2010PropOp55
 70
     1
102
RTVSPost2010Prop56
140
1.0
102
RTVSPost2010PropOp56
 70
     1
102
RTVSPost2010Prop57
140
1.0
102
RTVSPost2010PropOp57
 70
     1
  0
XRECORD
  5
2DE
102
{ACAD_REACTORS
330
2DD
102
}
330
2DD
100
AcDbXrecord
280
     1
102
RTVSPropertyOp0
 70
     1
102
RTVSPropertyOp1
 70
     1
102
RTVSPropertyOp2
 70
     1
102
RTVSPropertyOp3
 70
     1
102
RTVSPropertyOp4
 70
     1
102
RTVSPropertyOp5
 70
     1
102
RTVSPropertyOp6
 70
     1
102
RTVSPropertyOp7
 70
     1
102
RTVSPropertyOp8
 70
     1
102
RTVSPropertyOp9
 70
     1
102
RTVSPropertyOp10
 70
     1
102
RTVSPropertyOp11
 70
     1
102
RTVSPropertyOp12
 70
     1
102
RTVSPropertyOp13
 70
     1
102
RTVSPropertyOp14
 70
     1
102
RTVSPropertyOp15
 70
     1
102
RTVSPropertyOp16
 70
     1
102
RTVSPropertyOp17
 70
     1
102
RTVSPropertyOp18
 70
     1
102
RTVSPropertyOp19
 70
     1
102
RTVSPropertyOp20
 70
     1
102
RTVSPropertyOp21
 70
     1
102
RTVSPropertyOp22
 70
     1
102
RTVSPropertyOp23
 70
     1
102
RTVSPropertyOp24
 70
     1
102
RTVSPropertyOp25
 70
     1
102
RTVSPropertyOp26
 70
     1
102
RTVSPropertyOp27
 70
     1
102
RTVSPropertyOp28
 70
     1
102
RTVSPropertyOp29
 70
     1
102
RTVSPropertyOp30
 70
     1
102
RTVSPropertyOp31
 70
     1
102
RTVSPropertyOp32
 70
     1
102
RTVSPropertyOp33
 70
     1
102
RTVSPropertyOp34
 70
     1
102
RTVSPropertyOp35
 70
     1
102
RTVSPropertyOp36
 70
     1
102
RTVSPropertyOp37
 70
     1
102
RTVSPropertyOp38
 70
     1
102
RTVSPropertyOp39
 70
     1
102
RTVSPropertyOp40
 70
     1
102
RTVSPropertyOp41
 70
     1
102
RTVSPropertyOp42
 70
     1
102
RTVSPropertyOp43
 70
     1
102
RTVSPropertyOp44
 70
     1
102
RTVSPropertyOp45
 70
     1
102
RTVSPropertyOp46
 70
     1
102
RTVSPropertyOp47
 70
     1
102
RTVSPropertyOp48
 70
     1
102
RTVSPropertyOp49
 70
     1
102
RTVSPropertyOp50
 70
     1
102
RTVSPropertyOp51
 70
     0
102
RTVSPropertyOp52
 70
     0
102
RTVSPropertyOp53
 70
     1
102
RTVSPropertyOp54
 70
     1
102
RTVSPropertyOp55
 70
     1
102
RTVSPropertyOp56
 70
     1
102
RTVSPropertyOp57
 70
     1
102
RTVSPost2010Prop28
280
     0
102
RTVSPost2010PropOp28
 70
     1
102
RTVSPost2010Prop29
280
     1
102
RTVSPost2010PropOp29
 70
     1
102
RTVSPost2010Prop30
280
     1
102
RTVSPost2010PropOp30
 70
     1
102
RTVSPost2010Prop31
280
     0
102
RTVSPost2010PropOp31
 70
     1
102
RTVSPost2010Prop32
280
     0
102
RTVSPost2010PropOp32
 70
     1
102
RTVSPost2010Prop33
280
     0
102
RTVSPost2010PropOp33
 70
     1
102
RTVSPost2010Prop34
280
     0
102
RTVSPost2010PropOp34
 70
     1
102
RTVSPost2010Prop35
280
     0
102
RTVSPost2010PropOp35
 70
     1
102
RTVSPost2010Prop36
280
     0
102
RTVSPost2010PropOp36
 70
     1
102
RTVSPost2010Prop37
 90
       50
102
RTVSPost2010PropOp37
 70
     1
102
RTVSPost2010Prop38
140
0.0
102
RTVSPost2010PropOp38
 70
     1
102
RTVSPost2010Prop39
140
1.0
102
RTVSPost2010PropOp39
 70
     1
102
RTVSPost2010Prop40
 90
        0
102
RTVSPost2010PropOp40
 70
     1
102
RTVSPost2010Prop41ColorIndex
 90
       18
102
RTVSPost2010Prop41ColorRGB
 90
        0
102
RTVSPost2010PropOp41
 70
     1
102
RTVSPost2010Prop42
 90
       50
102
RTVSPost2010PropOp42
 70
     1
102
RTVSPost2010Prop43
 90
        3
102
RTVSPost2010PropOp43
 70
     1
102
RTVSPost2010Prop44ColorIndex
 90
        5
102
RTVSPost2010Prop44ColorRGB
 90
      255
102
RTVSPost2010PropOp44
 70
     1
102
RTVSPost2010Prop45
280
     0
102
RTVSPost2010PropOp45
 70
     1
102
RTVSPost2010Prop46
 90
       50
102
RTVSPost2010PropOp46
 70
     1
102
RTVSPost2010Prop47
 90
       50
102
RTVSPost2010PropOp47
 70
     1
102
RTVSPost2010Prop48
 90
       50
102
RTVSPost2010PropOp48
 70
     1
102
RTVSPost2010Prop49
280
     0
102
RTVSPost2010PropOp49
 70
     1
102
RTVSPost2010Prop50
 90
       50
102
RTVSPost2010PropOp50
 70
     1
102
RTVSPost2010Prop51ColorIndex
 90
      256
102
RTVSPost2010Prop51ColorRGB
 90
-16777216
102
RTVSPost2010PropOp51
 70
     0
102
RTVSPost2010Prop52
140
1.0
102
RTVSPost2010PropOp52
 70
     0
102
RTVSPost2010Prop53
 90
        2
102
RTVSPost2010PropOp53
 70
     1
102
RTVSPost2010Prop54
  1
strokes_ogs.tif
102
RTVSPost2010PropOp54
 70
     1
102
RTVSPost2010Prop55
280
     0
102
RTVSPost2010PropOp55
 70
     1
102
RTVSPost2010Prop56
140
1.0
102
RTVSPost2010PropOp56
 70
     1
102
RTVSPost2010Prop57
140
1.0
102
RTVSPost2010PropOp57
 70
     1
  0
XRECORD
  5
2E0
102
{ACAD_REACTORS
330
2DF
102
}
330
2DF
100
AcDbXrecord
280
     1
102
RTVSPropertyOp0
 70
     1
102
RTVSPropertyOp1
 70
     1
102
RTVSPropertyOp2
 70
     1
102
RTVSPropertyOp3
 70
     1
102
RTVSPropertyOp4
 70
     1
102
RTVSPropertyOp5
 70
     1
102
RTVSPropertyOp6
 70
     1
102
RTVSPropertyOp7
 70
     1
102
RTVSPropertyOp8
 70
     1
102
RTVSPropertyOp9
 70
     1
102
RTVSPropertyOp10
 70
     1
102
RTVSPropertyOp11
 70
     1
102
RTVSPropertyOp12
 70
     1
102
RTVSPropertyOp13
 70
     1
102
RTVSPropertyOp14
 70
     1
102
RTVSPropertyOp15
 70
     1
102
RTVSPropertyOp16
 70
     1
102
RTVSPropertyOp17
 70
     1
102
RTVSPropertyOp18
 70
     1
102
RTVSPropertyOp19
 70
     1
102
RTVSPropertyOp20
 70
     1
102
RTVSPropertyOp21
 70
     1
102
RTVSPropertyOp22
 70
     1
102
RTVSPropertyOp23
 70
     1
102
RTVSPropertyOp24
 70
     1
102
RTVSPropertyOp25
 70
     1
102
RTVSPropertyOp26
 70
     1
102
RTVSPropertyOp27
 70
     1
102
RTVSPropertyOp28
 70
     1
102
RTVSPropertyOp29
 70
     1
102
RTVSPropertyOp30
 70
     1
102
RTVSPropertyOp31
 70
     1
102
RTVSPropertyOp32
 70
     1
102
RTVSPropertyOp33
 70
     1
102
RTVSPropertyOp34
 70
     1
102
RTVSPropertyOp35
 70
     1
102
RTVSPropertyOp36
 70
     1
102
RTVSPropertyOp37
 70
     1
102
RTVSPropertyOp38
 70
     1
102
RTVSPropertyOp39
 70
     1
102
RTVSPropertyOp40
 70
     1
102
RTVSPropertyOp41
 70
     1
102
RTVSPropertyOp42
 70
     1
102
RTVSPropertyOp43
 70
     1
102
RTVSPropertyOp44
 70
     1
102
RTVSPropertyOp45
 70
     1
102
RTVSPropertyOp46
 70
     1
102
RTVSPropertyOp47
 70
     1
102
RTVSPropertyOp48
 70
     1
102
RTVSPropertyOp49
 70
     1
102
RTVSPropertyOp50
 70
     1
102
RTVSPropertyOp51
 70
     0
102
RTVSPropertyOp52
 70
     0
102
RTVSPropertyOp53
 70
     1
102
RTVSPropertyOp54
 70
     1
102
RTVSPropertyOp55
 70
     1
102
RTVSPropertyOp56
 70
     1
102
RTVSPropertyOp57
 70
     1
102
RTVSPost2010Prop28
280
     0
102
RTVSPost2010PropOp28
 70
     1
102
RTVSPost2010Prop29
280
     1
102
RTVSPost2010PropOp29
 70
     1
102
RTVSPost2010Prop30
280
     1
102
RTVSPost2010PropOp30
 70
     1
102
RTVSPost2010Prop31
280
     0
102
RTVSPost2010PropOp31
 70
     1
102
RTVSPost2010Prop32
280
     0
102
RTVSPost2010PropOp32
 70
     1
102
RTVSPost2010Prop33
280
     0
102
RTVSPost2010PropOp33
 70
     1
102
RTVSPost2010Prop34
280
     0
102
RTVSPost2010PropOp34
 70
     1
102
RTVSPost2010Prop35
280
     0
102
RTVSPost2010PropOp35
 70
     1
102
RTVSPost2010Prop36
280
     0
102
RTVSPost2010PropOp36
 70
     1
102
RTVSPost2010Prop37
 90
       50
102
RTVSPost2010PropOp37
 70
     1
102
RTVSPost2010Prop38
140
0.0
102
RTVSPost2010PropOp38
 70
     1
102
RTVSPost2010Prop39
140
1.0
102
RTVSPost2010PropOp39
 70
     1
102
RTVSPost2010Prop40
 90
        0
102
RTVSPost2010PropOp40
 70
     1
102
RTVSPost2010Prop41ColorIndex
 90
       18
102
RTVSPost2010Prop41ColorRGB
 90
        0
102
RTVSPost2010PropOp41
 70
     1
102
RTVSPost2010Prop42
 90
       50
102
RTVSPost2010PropOp42
 70
     1
102
RTVSPost2010Prop43
 90
        3
102
RTVSPost2010PropOp43
 70
     1
102
RTVSPost2010Prop44ColorIndex
 90
        5
102
RTVSPost2010Prop44ColorRGB
 90
      255
102
RTVSPost2010PropOp44
 70
     1
102
RTVSPost2010Prop45
280
     0
102
RTVSPost2010PropOp45
 70
     1
102
RTVSPost2010Prop46
 90
       50
102
RTVSPost2010PropOp46
 70
     1
102
RTVSPost2010Prop47
 90
       50
102
RTVSPost2010PropOp47
 70
     1
102
RTVSPost2010Prop48
 90
       50
102
RTVSPost2010PropOp48
 70
     1
102
RTVSPost2010Prop49
280
     0
102
RTVSPost2010PropOp49
 70
     1
102
RTVSPost2010Prop50
 90
       50
102
RTVSPost2010PropOp50
 70
     1
102
RTVSPost2010Prop51ColorIndex
 90
      256
102
RTVSPost2010Prop51ColorRGB
 90
-16777216
102
RTVSPost2010PropOp51
 70
     0
102
RTVSPost2010Prop52
140
1.0
102
RTVSPost2010PropOp52
 70
     0
102
RTVSPost2010Prop53
 90
        2
102
RTVSPost2010PropOp53
 70
     1
102
RTVSPost2010Prop54
  1
strokes_ogs.tif
102
RTVSPost2010PropOp54
 70
     1
102
RTVSPost2010Prop55
280
     0
102
RTVSPost2010PropOp55
 70
     1
102
RTVSPost2010Prop56
140
1.0
102
RTVSPost2010PropOp56
 70
     1
102
RTVSPost2010Prop57
140
1.0
102
RTVSPost2010PropOp57
 70
     1
  0
XRECORD
  5
2E2
102
{ACAD_REACTORS
330
2E1
102
}
330
2E1
100
AcDbXrecord
280
     1
102
RTVSPropertyOp0
 70
     1
102
RTVSPropertyOp1
 70
     1
102
RTVSPropertyOp2
 70
     1
102
RTVSPropertyOp3
 70
     1
102
RTVSPropertyOp4
 70
     1
102
RTVSPropertyOp5
 70
     1
102
RTVSPropertyOp6
 70
     1
102
RTVSPropertyOp7
 70
     1
102
RTVSPropertyOp8
 70
     1
102
RTVSPropertyOp9
 70
     1
102
RTVSPropertyOp10
 70
     1
102
RTVSPropertyOp11
 70
     1
102
RTVSPropertyOp12
 70
     1
102
RTVSPropertyOp13
 70
     1
102
RTVSPropertyOp14
 70
     1
102
RTVSPropertyOp15
 70
     1
102
RTVSPropertyOp16
 70
     1
102
RTVSPropertyOp17
 70
     1
102
RTVSPropertyOp18
 70
     1
102
RTVSPropertyOp19
 70
     1
102
RTVSPropertyOp20
 70
     1
102
RTVSPropertyOp21
 70
     1
102
RTVSPropertyOp22
 70
     1
102
RTVSPropertyOp23
 70
     1
102
RTVSPropertyOp24
 70
     1
102
RTVSPropertyOp25
 70
     1
102
RTVSPropertyOp26
 70
     1
102
RTVSPropertyOp27
 70
     1
102
RTVSPropertyOp28
 70
     1
102
RTVSPropertyOp29
 70
     1
102
RTVSPropertyOp30
 70
     1
102
RTVSPropertyOp31
 70
     1
102
RTVSPropertyOp32
 70
     1
102
RTVSPropertyOp33
 70
     1
102
RTVSPropertyOp34
 70
     1
102
RTVSPropertyOp35
 70
     1
102
RTVSPropertyOp36
 70
     1
102
RTVSPropertyOp37
 70
     1
102
RTVSPropertyOp38
 70
     1
102
RTVSPropertyOp39
 70
     1
102
RTVSPropertyOp40
 70
     1
102
RTVSPropertyOp41
 70
     1
102
RTVSPropertyOp42
 70
     1
102
RTVSPropertyOp43
 70
     1
102
RTVSPropertyOp44
 70
     1
102
RTVSPropertyOp45
 70
     1
102
RTVSPropertyOp46
 70
     1
102
RTVSPropertyOp47
 70
     1
102
RTVSPropertyOp48
 70
     1
102
RTVSPropertyOp49
 70
     1
102
RTVSPropertyOp50
 70
     1
102
RTVSPropertyOp51
 70
     0
102
RTVSPropertyOp52
 70
     0
102
RTVSPropertyOp53
 70
     1
102
RTVSPropertyOp54
 70
     1
102
RTVSPropertyOp55
 70
     1
102
RTVSPropertyOp56
 70
     1
102
RTVSPropertyOp57
 70
     1
102
RTVSPost2010Prop28
280
     0
102
RTVSPost2010PropOp28
 70
     1
102
RTVSPost2010Prop29
280
     1
102
RTVSPost2010PropOp29
 70
     1
102
RTVSPost2010Prop30
280
     1
102
RTVSPost2010PropOp30
 70
     1
102
RTVSPost2010Prop31
280
     0
102
RTVSPost2010PropOp31
 70
     1
102
RTVSPost2010Prop32
280
     0
102
RTVSPost2010PropOp32
 70
     1
102
RTVSPost2010Prop33
280
     0
102
RTVSPost2010PropOp33
 70
     1
102
RTVSPost2010Prop34
280
     0
102
RTVSPost2010PropOp34
 70
     1
102
RTVSPost2010Prop35
280
     0
102
RTVSPost2010PropOp35
 70
     1
102
RTVSPost2010Prop36
280
     0
102
RTVSPost2010PropOp36
 70
     1
102
RTVSPost2010Prop37
 90
       50
102
RTVSPost2010PropOp37
 70
     1
102
RTVSPost2010Prop38
140
0.0
102
RTVSPost2010PropOp38
 70
     1
102
RTVSPost2010Prop39
140
1.0
102
RTVSPost2010PropOp39
 70
     1
102
RTVSPost2010Prop40
 90
        0
102
RTVSPost2010PropOp40
 70
     1
102
RTVSPost2010Prop41ColorIndex
 90
       18
102
RTVSPost2010Prop41ColorRGB
 90
        0
102
RTVSPost2010PropOp41
 70
     1
102
RTVSPost2010Prop42
 90
       50
102
RTVSPost2010PropOp42
 70
     1
102
RTVSPost2010Prop43
 90
        3
102
RTVSPost2010PropOp43
 70
     1
102
RTVSPost2010Prop44ColorIndex
 90
        5
102
RTVSPost2010Prop44ColorRGB
 90
      255
102
RTVSPost2010PropOp44
 70
     1
102
RTVSPost2010Prop45
280
     0
102
RTVSPost2010PropOp45
 70
     1
102
RTVSPost2010Prop46
 90
       50
102
RTVSPost2010PropOp46
 70
     1
102
RTVSPost2010Prop47
 90
       50
102
RTVSPost2010PropOp47
 70
     1
102
RTVSPost2010Prop48
 90
       50
102
RTVSPost2010PropOp48
 70
     1
102
RTVSPost2010Prop49
280
     0
102
RTVSPost2010PropOp49
 70
     1
102
RTVSPost2010Prop50
 90
       50
102
RTVSPost2010PropOp50
 70
     1
102
RTVSPost2010Prop51ColorIndex
 90
      256
102
RTVSPost2010Prop51ColorRGB
 90
-16777216
102
RTVSPost2010PropOp51
 70
     0
102
RTVSPost2010Prop52
140
1.0
102
RTVSPost2010PropOp52
 70
     0
102
RTVSPost2010Prop53
 90
        2
102
RTVSPost2010PropOp53
 70
     1
102
RTVSPost2010Prop54
  1
strokes_ogs.tif
102
RTVSPost2010PropOp54
 70
     1
102
RTVSPost2010Prop55
280
     0
102
RTVSPost2010PropOp55
 70
     1
102
RTVSPost2010Prop56
140
1.0
102
RTVSPost2010PropOp56
 70
     1
102
RTVSPost2010Prop57
140
1.0
102
RTVSPost2010PropOp57
 70
     1
  0
XRECORD
  5
2E8
102
{ACAD_REACTORS
330
2E7
102
}
330
2E7
100
AcDbXrecord
280
     1
102
RTVSPropertyOp0
 70
     1
102
RTVSPropertyOp1
 70
     1
102
RTVSPropertyOp2
 70
     1
102
RTVSPropertyOp3
 70
     1
102
RTVSPropertyOp4
 70
     1
102
RTVSPropertyOp5
 70
     1
102
RTVSPropertyOp6
 70
     1
102
RTVSPropertyOp7
 70
     1
102
RTVSPropertyOp8
 70
     1
102
RTVSPropertyOp9
 70
     1
102
RTVSPropertyOp10
 70
     1
102
RTVSPropertyOp11
 70
     1
102
RTVSPropertyOp12
 70
     1
102
RTVSPropertyOp13
 70
     1
102
RTVSPropertyOp14
 70
     1
102
RTVSPropertyOp15
 70
     1
102
RTVSPropertyOp16
 70
     1
102
RTVSPropertyOp17
 70
     1
102
RTVSPropertyOp18
 70
     1
102
RTVSPropertyOp19
 70
     1
102
RTVSPropertyOp20
 70
     1
102
RTVSPropertyOp21
 70
     1
102
RTVSPropertyOp22
 70
     1
102
RTVSPropertyOp23
 70
     1
102
RTVSPropertyOp24
 70
     1
102
RTVSPropertyOp25
 70
     1
102
RTVSPropertyOp26
 70
     1
102
RTVSPropertyOp27
 70
     1
102
RTVSPropertyOp28
 70
     1
102
RTVSPropertyOp29
 70
     1
102
RTVSPropertyOp30
 70
     1
102
RTVSPropertyOp31
 70
     1
102
RTVSPropertyOp32
 70
     1
102
RTVSPropertyOp33
 70
     1
102
RTVSPropertyOp34
 70
     1
102
RTVSPropertyOp35
 70
     1
102
RTVSPropertyOp36
 70
     1
102
RTVSPropertyOp37
 70
     1
102
RTVSPropertyOp38
 70
     1
102
RTVSPropertyOp39
 70
     1
102
RTVSPropertyOp40
 70
     1
102
RTVSPropertyOp41
 70
     1
102
RTVSPropertyOp42
 70
     1
102
RTVSPropertyOp43
 70
     1
102
RTVSPropertyOp44
 70
     1
102
RTVSPropertyOp45
 70
     1
102
RTVSPropertyOp46
 70
     1
102
RTVSPropertyOp47
 70
     1
102
RTVSPropertyOp48
 70
     1
102
RTVSPropertyOp49
 70
     1
102
RTVSPropertyOp50
 70
     1
102
RTVSPropertyOp51
 70
     0
102
RTVSPropertyOp52
 70
     0
102
RTVSPropertyOp53
 70
     1
102
RTVSPropertyOp54
 70
     1
102
RTVSPropertyOp55
 70
     1
102
RTVSPropertyOp56
 70
     1
102
RTVSPropertyOp57
 70
     1
102
RTVSPost2010Prop28
280
     0
102
RTVSPost2010PropOp28
 70
     1
102
RTVSPost2010Prop29
280
     1
102
RTVSPost2010PropOp29
 70
     1
102
RTVSPost2010Prop30
280
     1
102
RTVSPost2010PropOp30
 70
     1
102
RTVSPost2010Prop31
280
     0
102
RTVSPost2010PropOp31
 70
     1
102
RTVSPost2010Prop32
280
     0
102
RTVSPost2010PropOp32
 70
     1
102
RTVSPost2010Prop33
280
     0
102
RTVSPost2010PropOp33
 70
     1
102
RTVSPost2010Prop34
280
     0
102
RTVSPost2010PropOp34
 70
     1
102
RTVSPost2010Prop35
280
     0
102
RTVSPost2010PropOp35
 70
     1
102
RTVSPost2010Prop36
280
     0
102
RTVSPost2010PropOp36
 70
     1
102
RTVSPost2010Prop37
 90
       50
102
RTVSPost2010PropOp37
 70
     1
102
RTVSPost2010Prop38
140
0.0
102
RTVSPost2010PropOp38
 70
     1
102
RTVSPost2010Prop39
140
1.0
102
RTVSPost2010PropOp39
 70
     1
102
RTVSPost2010Prop40
 90
        0
102
RTVSPost2010PropOp40
 70
     1
102
RTVSPost2010Prop41ColorIndex
 90
       18
102
RTVSPost2010Prop41ColorRGB
 90
        0
102
RTVSPost2010PropOp41
 70
     1
102
RTVSPost2010Prop42
 90
       50
102
RTVSPost2010PropOp42
 70
     1
102
RTVSPost2010Prop43
 90
        3
102
RTVSPost2010PropOp43
 70
     1
102
RTVSPost2010Prop44ColorIndex
 90
        5
102
RTVSPost2010Prop44ColorRGB
 90
      255
102
RTVSPost2010PropOp44
 70
     1
102
RTVSPost2010Prop45
280
     0
102
RTVSPost2010PropOp45
 70
     1
102
RTVSPost2010Prop46
 90
       50
102
RTVSPost2010PropOp46
 70
     1
102
RTVSPost2010Prop47
 90
       50
102
RTVSPost2010PropOp47
 70
     1
102
RTVSPost2010Prop48
 90
       50
102
RTVSPost2010PropOp48
 70
     1
102
RTVSPost2010Prop49
280
     0
102
RTVSPost2010PropOp49
 70
     1
102
RTVSPost2010Prop50
 90
       50
102
RTVSPost2010PropOp50
 70
     1
102
RTVSPost2010Prop51ColorIndex
 90
      256
102
RTVSPost2010Prop51ColorRGB
 90
-16777216
102
RTVSPost2010PropOp51
 70
     0
102
RTVSPost2010Prop52
140
1.0
102
RTVSPost2010PropOp52
 70
     0
102
RTVSPost2010Prop53
 90
        2
102
RTVSPost2010PropOp53
 70
     1
102
RTVSPost2010Prop54
  1
strokes_ogs.tif
102
RTVSPost2010PropOp54
 70
     1
102
RTVSPost2010Prop55
280
     0
102
RTVSPost2010PropOp55
 70
     1
102
RTVSPost2010Prop56
140
1.0
102
RTVSPost2010PropOp56
 70
     1
102
RTVSPost2010Prop57
140
1.0
102
RTVSPost2010PropOp57
 70
     1
  0
XRECORD
  5
2FC
102
{ACAD_REACTORS
330
2FB
102
}
330
2FB
100
AcDbXrecord
280
     1
102
RTVSPropertyOp0
 70
     0
102
RTVSPropertyOp1
 70
     0
102
RTVSPropertyOp2
 70
     0
102
RTVSPropertyOp3
 70
     0
102
RTVSPropertyOp4
 70
     0
102
RTVSPropertyOp5
 70
     0
102
RTVSPropertyOp6
 70
     0
102
RTVSPropertyOp7
 70
     0
102
RTVSPropertyOp8
 70
     0
102
RTVSPropertyOp9
 70
     0
102
RTVSPropertyOp10
 70
     0
102
RTVSPropertyOp11
 70
     0
102
RTVSPropertyOp12
 70
     0
102
RTVSPropertyOp13
 70
     0
102
RTVSPropertyOp14
 70
     2
102
RTVSPropertyOp15
 70
     0
102
RTVSPropertyOp16
 70
     0
102
RTVSPropertyOp17
 70
     0
102
RTVSPropertyOp18
 70
     0
102
RTVSPropertyOp19
 70
     0
102
RTVSPropertyOp20
 70
     0
102
RTVSPropertyOp21
 70
     0
102
RTVSPropertyOp22
 70
     0
102
RTVSPropertyOp23
 70
     0
102
RTVSPropertyOp24
 70
     0
102
RTVSPropertyOp25
 70
     0
102
RTVSPropertyOp26
 70
     0
102
RTVSPropertyOp27
 70
     0
102
RTVSPropertyOp28
 70
     0
102
RTVSPropertyOp29
 70
     0
102
RTVSPropertyOp30
 70
     0
102
RTVSPropertyOp31
 70
     0
102
RTVSPropertyOp32
 70
     0
102
RTVSPropertyOp33
 70
     0
102
RTVSPropertyOp34
 70
     0
102
RTVSPropertyOp35
 70
     0
102
RTVSPropertyOp36
 70
     0
102
RTVSPropertyOp37
 70
     0
102
RTVSPropertyOp38
 70
     0
102
RTVSPropertyOp39
 70
     0
102
RTVSPropertyOp40
 70
     0
102
RTVSPropertyOp41
 70
     0
102
RTVSPropertyOp42
 70
     0
102
RTVSPropertyOp43
 70
     0
102
RTVSPropertyOp44
 70
     0
102
RTVSPropertyOp45
 70
     0
102
RTVSPropertyOp46
 70
     0
102
RTVSPropertyOp47
 70
     0
102
RTVSPropertyOp48
 70
     0
102
RTVSPropertyOp49
 70
     0
102
RTVSPropertyOp50
 70
     0
102
RTVSPropertyOp51
 70
     0
102
RTVSPropertyOp52
 70
     0
102
RTVSPropertyOp53
 70
     0
102
RTVSPropertyOp54
 70
     0
102
RTVSPropertyOp55
 70
     0
102
RTVSPropertyOp56
 70
     0
102
RTVSPropertyOp57
 70
     0
102
RTVSPost2010Prop28
280
     0
102
RTVSPost2010PropOp28
 70
     0
102
RTVSPost2010Prop29
280
     1
102
RTVSPost2010PropOp29
 70
     0
102
RTVSPost2010Prop30
280
     1
102
RTVSPost2010PropOp30
 70
     0
102
RTVSPost2010Prop31
280
     0
102
RTVSPost2010PropOp31
 70
     0
102
RTVSPost2010Prop32
280
     0
102
RTVSPost2010PropOp32
 70
     0
102
RTVSPost2010Prop33
280
     0
102
RTVSPost2010PropOp33
 70
     0
102
RTVSPost2010Prop34
280
     0
102
RTVSPost2010PropOp34
 70
     0
102
RTVSPost2010Prop35
280
     0
102
RTVSPost2010PropOp35
 70
     0
102
RTVSPost2010Prop36
280
     0
102
RTVSPost2010PropOp36
 70
     0
102
RTVSPost2010Prop37
 90
       50
102
RTVSPost2010PropOp37
 70
     0
102
RTVSPost2010Prop38
140
0.0
102
RTVSPost2010PropOp38
 70
     0
102
RTVSPost2010Prop39
140
1.0
102
RTVSPost2010PropOp39
 70
     0
102
RTVSPost2010Prop40
 90
        0
102
RTVSPost2010PropOp40
 70
     0
102
RTVSPost2010Prop41ColorIndex
 90
       18
102
RTVSPost2010Prop41ColorRGB
 90
        0
102
RTVSPost2010PropOp41
 70
     0
102
RTVSPost2010Prop42
 90
       50
102
RTVSPost2010PropOp42
 70
     0
102
RTVSPost2010Prop43
 90
        3
102
RTVSPost2010PropOp43
 70
     0
102
RTVSPost2010Prop44ColorIndex
 90
        5
102
RTVSPost2010Prop44ColorRGB
 90
      255
102
RTVSPost2010PropOp44
 70
     0
102
RTVSPost2010Prop45
280
     0
102
RTVSPost2010PropOp45
 70
     0
102
RTVSPost2010Prop46
 90
       50
102
RTVSPost2010PropOp46
 70
     0
102
RTVSPost2010Prop47
 90
       50
102
RTVSPost2010PropOp47
 70
     0
102
RTVSPost2010Prop48
 90
       50
102
RTVSPost2010PropOp48
 70
     0
102
RTVSPost2010Prop49
280
     0
102
RTVSPost2010PropOp49
 70
     0
102
RTVSPost2010Prop50
 90
       50
102
RTVSPost2010PropOp50
 70
     0
102
RTVSPost2010Prop51ColorIndex
 90
      256
102
RTVSPost2010Prop51ColorRGB
 90
-16777216
102
RTVSPost2010PropOp51
 70
     0
102
RTVSPost2010Prop52
140
1.0
102
RTVSPost2010PropOp52
 70
     0
102
RTVSPost2010Prop53
 90
        2
102
RTVSPost2010PropOp53
 70
     0
102
RTVSPost2010Prop54
  1
strokes_ogs.tif
102
RTVSPost2010PropOp54
 70
     0
102
RTVSPost2010Prop55
280
     0
102
RTVSPost2010PropOp55
 70
     0
102
RTVSPost2010Prop56
140
1.0
102
RTVSPost2010PropOp56
 70
     0
102
RTVSPost2010Prop57
140
1.0
102
RTVSPost2010PropOp57
 70
     0
  0
XRECORD
  5
2F6
102
{ACAD_REACTORS
330
2F5
102
}
330
2F5
100
AcDbXrecord
280
     1
102
RTVSPropertyOp0
 70
     1
102
RTVSPropertyOp1
 70
     1
102
RTVSPropertyOp2
 70
     1
102
RTVSPropertyOp3
 70
     1
102
RTVSPropertyOp4
 70
     1
102
RTVSPropertyOp5
 70
     1
102
RTVSPropertyOp6
 70
     1
102
RTVSPropertyOp7
 70
     1
102
RTVSPropertyOp8
 70
     1
102
RTVSPropertyOp9
 70
     1
102
RTVSPropertyOp10
 70
     1
102
RTVSPropertyOp11
 70
     1
102
RTVSPropertyOp12
 70
     1
102
RTVSPropertyOp13
 70
     1
102
RTVSPropertyOp14
 70
     1
102
RTVSPropertyOp15
 70
     1
102
RTVSPropertyOp16
 70
     1
102
RTVSPropertyOp17
 70
     1
102
RTVSPropertyOp18
 70
     1
102
RTVSPropertyOp19
 70
     1
102
RTVSPropertyOp20
 70
     1
102
RTVSPropertyOp21
 70
     1
102
RTVSPropertyOp22
 70
     1
102
RTVSPropertyOp23
 70
     1
102
RTVSPropertyOp24
 70
     1
102
RTVSPropertyOp25
 70
     1
102
RTVSPropertyOp26
 70
     1
102
RTVSPropertyOp27
 70
     1
102
RTVSPropertyOp28
 70
     1
102
RTVSPropertyOp29
 70
     1
102
RTVSPropertyOp30
 70
     1
102
RTVSPropertyOp31
 70
     1
102
RTVSPropertyOp32
 70
     1
102
RTVSPropertyOp33
 70
     1
102
RTVSPropertyOp34
 70
     1
102
RTVSPropertyOp35
 70
     1
102
RTVSPropertyOp36
 70
     1
102
RTVSPropertyOp37
 70
     1
102
RTVSPropertyOp38
 70
     1
102
RTVSPropertyOp39
 70
     1
102
RTVSPropertyOp40
 70
     1
102
RTVSPropertyOp41
 70
     1
102
RTVSPropertyOp42
 70
     1
102
RTVSPropertyOp43
 70
     1
102
RTVSPropertyOp44
 70
     1
102
RTVSPropertyOp45
 70
     1
102
RTVSPropertyOp46
 70
     1
102
RTVSPropertyOp47
 70
     1
102
RTVSPropertyOp48
 70
     1
102
RTVSPropertyOp49
 70
     1
102
RTVSPropertyOp50
 70
     1
102
RTVSPropertyOp51
 70
     0
102
RTVSPropertyOp52
 70
     0
102
RTVSPropertyOp53
 70
     1
102
RTVSPropertyOp54
 70
     1
102
RTVSPropertyOp55
 70
     1
102
RTVSPropertyOp56
 70
     1
102
RTVSPropertyOp57
 70
     1
102
RTVSPost2010Prop28
280
     0
102
RTVSPost2010PropOp28
 70
     1
102
RTVSPost2010Prop29
280
     1
102
RTVSPost2010PropOp29
 70
     1
102
RTVSPost2010Prop30
280
     1
102
RTVSPost2010PropOp30
 70
     1
102
RTVSPost2010Prop31
280
     0
102
RTVSPost2010PropOp31
 70
     1
102
RTVSPost2010Prop32
280
     0
102
RTVSPost2010PropOp32
 70
     1
102
RTVSPost2010Prop33
280
     0
102
RTVSPost2010PropOp33
 70
     1
102
RTVSPost2010Prop34
280
     0
102
RTVSPost2010PropOp34
 70
     1
102
RTVSPost2010Prop35
280
     0
102
RTVSPost2010PropOp35
 70
     1
102
RTVSPost2010Prop36
280
     0
102
RTVSPost2010PropOp36
 70
     1
102
RTVSPost2010Prop37
 90
       50
102
RTVSPost2010PropOp37
 70
     1
102
RTVSPost2010Prop38
140
0.0
102
RTVSPost2010PropOp38
 70
     1
102
RTVSPost2010Prop39
140
1.0
102
RTVSPost2010PropOp39
 70
     1
102
RTVSPost2010Prop40
 90
        0
102
RTVSPost2010PropOp40
 70
     1
102
RTVSPost2010Prop41ColorIndex
 90
       18
102
RTVSPost2010Prop41ColorRGB
 90
        0
102
RTVSPost2010PropOp41
 70
     1
102
RTVSPost2010Prop42
 90
       50
102
RTVSPost2010PropOp42
 70
     1
102
RTVSPost2010Prop43
 90
        3
102
RTVSPost2010PropOp43
 70
     1
102
RTVSPost2010Prop44ColorIndex
 90
        5
102
RTVSPost2010Prop44ColorRGB
 90
      255
102
RTVSPost2010PropOp44
 70
     1
102
RTVSPost2010Prop45
280
     0
102
RTVSPost2010PropOp45
 70
     1
102
RTVSPost2010Prop46
 90
       50
102
RTVSPost2010PropOp46
 70
     1
102
RTVSPost2010Prop47
 90
       50
102
RTVSPost2010PropOp47
 70
     1
102
RTVSPost2010Prop48
 90
       50
102
RTVSPost2010PropOp48
 70
     1
102
RTVSPost2010Prop49
280
     0
102
RTVSPost2010PropOp49
 70
     1
102
RTVSPost2010Prop50
 90
       50
102
RTVSPost2010PropOp50
 70
     1
102
RTVSPost2010Prop51ColorIndex
 90
      256
102
RTVSPost2010Prop51ColorRGB
 90
-16777216
102
RTVSPost2010PropOp51
 70
     0
102
RTVSPost2010Prop52
140
1.0
102
RTVSPost2010PropOp52
 70
     0
102
RTVSPost2010Prop53
 90
        2
102
RTVSPost2010PropOp53
 70
     1
102
RTVSPost2010Prop54
  1
strokes_ogs.tif
102
RTVSPost2010PropOp54
 70
     1
102
RTVSPost2010Prop55
280
     0
102
RTVSPost2010PropOp55
 70
     1
102
RTVSPost2010Prop56
140
1.0
102
RTVSPost2010PropOp56
 70
     1
102
RTVSPost2010Prop57
140
1.0
102
RTVSPost2010PropOp57
 70
     1
  0
XRECORD
  5
2FE
102
{ACAD_REACTORS
330
2FD
102
}
330
2FD
100
AcDbXrecord
280
     1
102
RTVSPropertyOp0
 70
     0
102
RTVSPropertyOp1
 70
     0
102
RTVSPropertyOp2
 70
     0
102
RTVSPropertyOp3
 70
     0
102
RTVSPropertyOp4
 70
     0
102
RTVSPropertyOp5
 70
     0
102
RTVSPropertyOp6
 70
     0
102
RTVSPropertyOp7
 70
     0
102
RTVSPropertyOp8
 70
     0
102
RTVSPropertyOp9
 70
     0
102
RTVSPropertyOp10
 70
     0
102
RTVSPropertyOp11
 70
     0
102
RTVSPropertyOp12
 70
     0
102
RTVSPropertyOp13
 70
     0
102
RTVSPropertyOp14
 70
     2
102
RTVSPropertyOp15
 70
     0
102
RTVSPropertyOp16
 70
     0
102
RTVSPropertyOp17
 70
     0
102
RTVSPropertyOp18
 70
     0
102
RTVSPropertyOp19
 70
     0
102
RTVSPropertyOp20
 70
     0
102
RTVSPropertyOp21
 70
     0
102
RTVSPropertyOp22
 70
     0
102
RTVSPropertyOp23
 70
     0
102
RTVSPropertyOp24
 70
     0
102
RTVSPropertyOp25
 70
     0
102
RTVSPropertyOp26
 70
     0
102
RTVSPropertyOp27
 70
     0
102
RTVSPropertyOp28
 70
     0
102
RTVSPropertyOp29
 70
     0
102
RTVSPropertyOp30
 70
     0
102
RTVSPropertyOp31
 70
     0
102
RTVSPropertyOp32
 70
     0
102
RTVSPropertyOp33
 70
     0
102
RTVSPropertyOp34
 70
     0
102
RTVSPropertyOp35
 70
     0
102
RTVSPropertyOp36
 70
     0
102
RTVSPropertyOp37
 70
     0
102
RTVSPropertyOp38
 70
     0
102
RTVSPropertyOp39
 70
     0
102
RTVSPropertyOp40
 70
     0
102
RTVSPropertyOp41
 70
     0
102
RTVSPropertyOp42
 70
     0
102
RTVSPropertyOp43
 70
     0
102
RTVSPropertyOp44
 70
     0
102
RTVSPropertyOp45
 70
     0
102
RTVSPropertyOp46
 70
     0
102
RTVSPropertyOp47
 70
     0
102
RTVSPropertyOp48
 70
     0
102
RTVSPropertyOp49
 70
     0
102
RTVSPropertyOp50
 70
     0
102
RTVSPropertyOp51
 70
     0
102
RTVSPropertyOp52
 70
     0
102
RTVSPropertyOp53
 70
     0
102
RTVSPropertyOp54
 70
     0
102
RTVSPropertyOp55
 70
     0
102
RTVSPropertyOp56
 70
     0
102
RTVSPropertyOp57
 70
     0
102
RTVSPost2010Prop28
280
     0
102
RTVSPost2010PropOp28
 70
     0
102
RTVSPost2010Prop29
280
     1
102
RTVSPost2010PropOp29
 70
     0
102
RTVSPost2010Prop30
280
     1
102
RTVSPost2010PropOp30
 70
     0
102
RTVSPost2010Prop31
280
     0
102
RTVSPost2010PropOp31
 70
     0
102
RTVSPost2010Prop32
280
     0
102
RTVSPost2010PropOp32
 70
     0
102
RTVSPost2010Prop33
280
     0
102
RTVSPost2010PropOp33
 70
     0
102
RTVSPost2010Prop34
280
     0
102
RTVSPost2010PropOp34
 70
     0
102
RTVSPost2010Prop35
280
     0
102
RTVSPost2010PropOp35
 70
     0
102
RTVSPost2010Prop36
280
     0
102
RTVSPost2010PropOp36
 70
     0
102
RTVSPost2010Prop37
 90
       50
102
RTVSPost2010PropOp37
 70
     0
102
RTVSPost2010Prop38
140
0.0
102
RTVSPost2010PropOp38
 70
     0
102
RTVSPost2010Prop39
140
1.0
102
RTVSPost2010PropOp39
 70
     0
102
RTVSPost2010Prop40
 90
        0
102
RTVSPost2010PropOp40
 70
     0
102
RTVSPost2010Prop41ColorIndex
 90
       18
102
RTVSPost2010Prop41ColorRGB
 90
        0
102
RTVSPost2010PropOp41
 70
     0
102
RTVSPost2010Prop42
 90
       50
102
RTVSPost2010PropOp42
 70
     0
102
RTVSPost2010Prop43
 90
        3
102
RTVSPost2010PropOp43
 70
     0
102
RTVSPost2010Prop44ColorIndex
 90
        5
102
RTVSPost2010Prop44ColorRGB
 90
      255
102
RTVSPost2010PropOp44
 70
     0
102
RTVSPost2010Prop45
280
     0
102
RTVSPost2010PropOp45
 70
     0
102
RTVSPost2010Prop46
 90
       50
102
RTVSPost2010PropOp46
 70
     0
102
RTVSPost2010Prop47
 90
       50
102
RTVSPost2010PropOp47
 70
     0
102
RTVSPost2010Prop48
 90
       50
102
RTVSPost2010PropOp48
 70
     0
102
RTVSPost2010Prop49
280
     0
102
RTVSPost2010PropOp49
 70
     0
102
RTVSPost2010Prop50
 90
       50
102
RTVSPost2010PropOp50
 70
     0
102
RTVSPost2010Prop51ColorIndex
 90
      256
102
RTVSPost2010Prop51ColorRGB
 90
-16777216
102
RTVSPost2010PropOp51
 70
     0
102
RTVSPost2010Prop52
140
1.0
102
RTVSPost2010PropOp52
 70
     0
102
RTVSPost2010Prop53
 90
        2
102
RTVSPost2010PropOp53
 70
     0
102
RTVSPost2010Prop54
  1
strokes_ogs.tif
102
RTVSPost2010PropOp54
 70
     0
102
RTVSPost2010Prop55
280
     0
102
RTVSPost2010PropOp55
 70
     0
102
RTVSPost2010Prop56
140
1.0
102
RTVSPost2010PropOp56
 70
     0
102
RTVSPost2010Prop57
140
1.0
102
RTVSPost2010PropOp57
 70
     0
  0
XRECORD
  5
2EC
102
{ACAD_REACTORS
330
2EB
102
}
330
2EB
100
AcDbXrecord
280
     1
102
RTVSPropertyOp0
 70
     1
102
RTVSPropertyOp1
 70
     1
102
RTVSPropertyOp2
 70
     1
102
RTVSPropertyOp3
 70
     1
102
RTVSPropertyOp4
 70
     1
102
RTVSPropertyOp5
 70
     1
102
RTVSPropertyOp6
 70
     1
102
RTVSPropertyOp7
 70
     1
102
RTVSPropertyOp8
 70
     1
102
RTVSPropertyOp9
 70
     1
102
RTVSPropertyOp10
 70
     1
102
RTVSPropertyOp11
 70
     1
102
RTVSPropertyOp12
 70
     1
102
RTVSPropertyOp13
 70
     1
102
RTVSPropertyOp14
 70
     1
102
RTVSPropertyOp15
 70
     1
102
RTVSPropertyOp16
 70
     1
102
RTVSPropertyOp17
 70
     1
102
RTVSPropertyOp18
 70
     1
102
RTVSPropertyOp19
 70
     1
102
RTVSPropertyOp20
 70
     1
102
RTVSPropertyOp21
 70
     1
102
RTVSPropertyOp22
 70
     1
102
RTVSPropertyOp23
 70
     1
102
RTVSPropertyOp24
 70
     1
102
RTVSPropertyOp25
 70
     1
102
RTVSPropertyOp26
 70
     1
102
RTVSPropertyOp27
 70
     1
102
RTVSPropertyOp28
 70
     1
102
RTVSPropertyOp29
 70
     1
102
RTVSPropertyOp30
 70
     1
102
RTVSPropertyOp31
 70
     1
102
RTVSPropertyOp32
 70
     1
102
RTVSPropertyOp33
 70
     1
102
RTVSPropertyOp34
 70
     1
102
RTVSPropertyOp35
 70
     1
102
RTVSPropertyOp36
 70
     1
102
RTVSPropertyOp37
 70
     1
102
RTVSPropertyOp38
 70
     1
102
RTVSPropertyOp39
 70
     1
102
RTVSPropertyOp40
 70
     1
102
RTVSPropertyOp41
 70
     1
102
RTVSPropertyOp42
 70
     1
102
RTVSPropertyOp43
 70
     1
102
RTVSPropertyOp44
 70
     1
102
RTVSPropertyOp45
 70
     1
102
RTVSPropertyOp46
 70
     1
102
RTVSPropertyOp47
 70
     1
102
RTVSPropertyOp48
 70
     1
102
RTVSPropertyOp49
 70
     1
102
RTVSPropertyOp50
 70
     1
102
RTVSPropertyOp51
 70
     0
102
RTVSPropertyOp52
 70
     0
102
RTVSPropertyOp53
 70
     1
102
RTVSPropertyOp54
 70
     1
102
RTVSPropertyOp55
 70
     1
102
RTVSPropertyOp56
 70
     1
102
RTVSPropertyOp57
 70
     1
102
RTVSPost2010Prop28
280
     0
102
RTVSPost2010PropOp28
 70
     1
102
RTVSPost2010Prop29
280
     1
102
RTVSPost2010PropOp29
 70
     1
102
RTVSPost2010Prop30
280
     1
102
RTVSPost2010PropOp30
 70
     1
102
RTVSPost2010Prop31
280
     0
102
RTVSPost2010PropOp31
 70
     1
102
RTVSPost2010Prop32
280
     0
102
RTVSPost2010PropOp32
 70
     1
102
RTVSPost2010Prop33
280
     0
102
RTVSPost2010PropOp33
 70
     1
102
RTVSPost2010Prop34
280
     0
102
RTVSPost2010PropOp34
 70
     1
102
RTVSPost2010Prop35
280
     0
102
RTVSPost2010PropOp35
 70
     1
102
RTVSPost2010Prop36
280
     0
102
RTVSPost2010PropOp36
 70
     1
102
RTVSPost2010Prop37
 90
       50
102
RTVSPost2010PropOp37
 70
     1
102
RTVSPost2010Prop38
140
0.0
102
RTVSPost2010PropOp38
 70
     1
102
RTVSPost2010Prop39
140
1.0
102
RTVSPost2010PropOp39
 70
     1
102
RTVSPost2010Prop40
 90
        0
102
RTVSPost2010PropOp40
 70
     1
102
RTVSPost2010Prop41ColorIndex
 90
       18
102
RTVSPost2010Prop41ColorRGB
 90
        0
102
RTVSPost2010PropOp41
 70
     1
102
RTVSPost2010Prop42
 90
       50
102
RTVSPost2010PropOp42
 70
     1
102
RTVSPost2010Prop43
 90
        3
102
RTVSPost2010PropOp43
 70
     1
102
RTVSPost2010Prop44ColorIndex
 90
        5
102
RTVSPost2010Prop44ColorRGB
 90
      255
102
RTVSPost2010PropOp44
 70
     1
102
RTVSPost2010Prop45
280
     0
102
RTVSPost2010PropOp45
 70
     1
102
RTVSPost2010Prop46
 90
       50
102
RTVSPost2010PropOp46
 70
     1
102
RTVSPost2010Prop47
 90
       50
102
RTVSPost2010PropOp47
 70
     1
102
RTVSPost2010Prop48
 90
       50
102
RTVSPost2010PropOp48
 70
     1
102
RTVSPost2010Prop49
280
     0
102
RTVSPost2010PropOp49
 70
     1
102
RTVSPost2010Prop50
 90
       50
102
RTVSPost2010PropOp50
 70
     1
102
RTVSPost2010Prop51ColorIndex
 90
      256
102
RTVSPost2010Prop51ColorRGB
 90
-16777216
102
RTVSPost2010PropOp51
 70
     0
102
RTVSPost2010Prop52
140
1.0
102
RTVSPost2010PropOp52
 70
     0
102
RTVSPost2010Prop53
 90
        2
102
RTVSPost2010PropOp53
 70
     1
102
RTVSPost2010Prop54
  1
strokes_ogs.tif
102
RTVSPost2010PropOp54
 70
     1
102
RTVSPost2010Prop55
280
     0
102
RTVSPost2010PropOp55
 70
     1
102
RTVSPost2010Prop56
140
1.0
102
RTVSPost2010PropOp56
 70
     1
102
RTVSPost2010Prop57
140
1.0
102
RTVSPost2010PropOp57
 70
     1
  0
XRECORD
  5
30A
102
{ACAD_REACTORS
330
309
102
}
330
309
100
AcDbXrecord
280
     1
102
RTVSPropertyOp0
 70
     1
102
RTVSPropertyOp1
 70
     1
102
RTVSPropertyOp2
 70
     1
102
RTVSPropertyOp3
 70
     1
102
RTVSPropertyOp4
 70
     1
102
RTVSPropertyOp5
 70
     1
102
RTVSPropertyOp6
 70
     1
102
RTVSPropertyOp7
 70
     1
102
RTVSPropertyOp8
 70
     1
102
RTVSPropertyOp9
 70
     1
102
RTVSPropertyOp10
 70
     1
102
RTVSPropertyOp11
 70
     1
102
RTVSPropertyOp12
 70
     1
102
RTVSPropertyOp13
 70
     1
102
RTVSPropertyOp14
 70
     1
102
RTVSPropertyOp15
 70
     1
102
RTVSPropertyOp16
 70
     1
102
RTVSPropertyOp17
 70
     1
102
RTVSPropertyOp18
 70
     1
102
RTVSPropertyOp19
 70
     1
102
RTVSPropertyOp20
 70
     1
102
RTVSPropertyOp21
 70
     1
102
RTVSPropertyOp22
 70
     1
102
RTVSPropertyOp23
 70
     1
102
RTVSPropertyOp24
 70
     1
102
RTVSPropertyOp25
 70
     1
102
RTVSPropertyOp26
 70
     1
102
RTVSPropertyOp27
 70
     1
102
RTVSPropertyOp28
 70
     1
102
RTVSPropertyOp29
 70
     1
102
RTVSPropertyOp30
 70
     1
102
RTVSPropertyOp31
 70
     1
102
RTVSPropertyOp32
 70
     1
102
RTVSPropertyOp33
 70
     1
102
RTVSPropertyOp34
 70
     1
102
RTVSPropertyOp35
 70
     1
102
RTVSPropertyOp36
 70
     1
102
RTVSPropertyOp37
 70
     1
102
RTVSPropertyOp38
 70
     1
102
RTVSPropertyOp39
 70
     1
102
RTVSPropertyOp40
 70
     1
102
RTVSPropertyOp41
 70
     1
102
RTVSPropertyOp42
 70
     1
102
RTVSPropertyOp43
 70
     1
102
RTVSPropertyOp44
 70
     1
102
RTVSPropertyOp45
 70
     1
102
RTVSPropertyOp46
 70
     1
102
RTVSPropertyOp47
 70
     1
102
RTVSPropertyOp48
 70
     1
102
RTVSPropertyOp49
 70
     1
102
RTVSPropertyOp50
 70
     1
102
RTVSPropertyOp51
 70
     0
102
RTVSPropertyOp52
 70
     0
102
RTVSPropertyOp53
 70
     1
102
RTVSPropertyOp54
 70
     1
102
RTVSPropertyOp55
 70
     1
102
RTVSPropertyOp56
 70
     1
102
RTVSPropertyOp57
 70
     1
102
RTVSPost2010Prop28
280
     0
102
RTVSPost2010PropOp28
 70
     1
102
RTVSPost2010Prop29
280
     1
102
RTVSPost2010PropOp29
 70
     1
102
RTVSPost2010Prop30
280
     1
102
RTVSPost2010PropOp30
 70
     1
102
RTVSPost2010Prop31
280
     0
102
RTVSPost2010PropOp31
 70
     1
102
RTVSPost2010Prop32
280
     0
102
RTVSPost2010PropOp32
 70
     1
102
RTVSPost2010Prop33
280
     0
102
RTVSPost2010PropOp33
 70
     1
102
RTVSPost2010Prop34
280
     0
102
RTVSPost2010PropOp34
 70
     1
102
RTVSPost2010Prop35
280
     0
102
RTVSPost2010PropOp35
 70
     1
102
RTVSPost2010Prop36
280
     0
102
RTVSPost2010PropOp36
 70
     1
102
RTVSPost2010Prop37
 90
       50
102
RTVSPost2010PropOp37
 70
     1
102
RTVSPost2010Prop38
140
0.0
102
RTVSPost2010PropOp38
 70
     1
102
RTVSPost2010Prop39
140
1.0
102
RTVSPost2010PropOp39
 70
     1
102
RTVSPost2010Prop40
 90
        0
102
RTVSPost2010PropOp40
 70
     1
102
RTVSPost2010Prop41ColorIndex
 90
       18
102
RTVSPost2010Prop41ColorRGB
 90
        0
102
RTVSPost2010PropOp41
 70
     1
102
RTVSPost2010Prop42
 90
       50
102
RTVSPost2010PropOp42
 70
     1
102
RTVSPost2010Prop43
 90
        3
102
RTVSPost2010PropOp43
 70
     1
102
RTVSPost2010Prop44ColorIndex
 90
        5
102
RTVSPost2010Prop44ColorRGB
 90
      255
102
RTVSPost2010PropOp44
 70
     1
102
RTVSPost2010Prop45
280
     0
102
RTVSPost2010PropOp45
 70
     1
102
RTVSPost2010Prop46
 90
       50
102
RTVSPost2010PropOp46
 70
     1
102
RTVSPost2010Prop47
 90
       50
102
RTVSPost2010PropOp47
 70
     1
102
RTVSPost2010Prop48
 90
       50
102
RTVSPost2010PropOp48
 70
     1
102
RTVSPost2010Prop49
280
     0
102
RTVSPost2010PropOp49
 70
     1
102
RTVSPost2010Prop50
 90
       50
102
RTVSPost2010PropOp50
 70
     1
102
RTVSPost2010Prop51ColorIndex
 90
      256
102
RTVSPost2010Prop51ColorRGB
 90
-16777216
102
RTVSPost2010PropOp51
 70
     0
102
RTVSPost2010Prop52
140
1.0
102
RTVSPost2010PropOp52
 70
     0
102
RTVSPost2010Prop53
 90
        2
102
RTVSPost2010PropOp53
 70
     1
102
RTVSPost2010Prop54
  1
strokes_ogs.tif
102
RTVSPost2010PropOp54
 70
     1
102
RTVSPost2010Prop55
280
     0
102
RTVSPost2010PropOp55
 70
     1
102
RTVSPost2010Prop56
140
1.0
102
RTVSPost2010PropOp56
 70
     1
102
RTVSPost2010Prop57
140
1.0
102
RTVSPost2010PropOp57
 70
     1
  0
XRECORD
  5
308
102
{ACAD_REACTORS
330
307
102
}
330
307
100
AcDbXrecord
280
     1
102
RTVSPropertyOp0
 70
     1
102
RTVSPropertyOp1
 70
     1
102
RTVSPropertyOp2
 70
     1
102
RTVSPropertyOp3
 70
     1
102
RTVSPropertyOp4
 70
     1
102
RTVSPropertyOp5
 70
     1
102
RTVSPropertyOp6
 70
     1
102
RTVSPropertyOp7
 70
     1
102
RTVSPropertyOp8
 70
     1
102
RTVSPropertyOp9
 70
     1
102
RTVSPropertyOp10
 70
     1
102
RTVSPropertyOp11
 70
     1
102
RTVSPropertyOp12
 70
     1
102
RTVSPropertyOp13
 70
     1
102
RTVSPropertyOp14
 70
     1
102
RTVSPropertyOp15
 70
     1
102
RTVSPropertyOp16
 70
     1
102
RTVSPropertyOp17
 70
     1
102
RTVSPropertyOp18
 70
     1
102
RTVSPropertyOp19
 70
     1
102
RTVSPropertyOp20
 70
     1
102
RTVSPropertyOp21
 70
     1
102
RTVSPropertyOp22
 70
     1
102
RTVSPropertyOp23
 70
     1
102
RTVSPropertyOp24
 70
     1
102
RTVSPropertyOp25
 70
     1
102
RTVSPropertyOp26
 70
     1
102
RTVSPropertyOp27
 70
     1
102
RTVSPropertyOp28
 70
     1
102
RTVSPropertyOp29
 70
     1
102
RTVSPropertyOp30
 70
     1
102
RTVSPropertyOp31
 70
     1
102
RTVSPropertyOp32
 70
     1
102
RTVSPropertyOp33
 70
     1
102
RTVSPropertyOp34
 70
     1
102
RTVSPropertyOp35
 70
     1
102
RTVSPropertyOp36
 70
     1
102
RTVSPropertyOp37
 70
     1
102
RTVSPropertyOp38
 70
     1
102
RTVSPropertyOp39
 70
     1
102
RTVSPropertyOp40
 70
     1
102
RTVSPropertyOp41
 70
     1
102
RTVSPropertyOp42
 70
     1
102
RTVSPropertyOp43
 70
     1
102
RTVSPropertyOp44
 70
     1
102
RTVSPropertyOp45
 70
     1
102
RTVSPropertyOp46
 70
     1
102
RTVSPropertyOp47
 70
     1
102
RTVSPropertyOp48
 70
     1
102
RTVSPropertyOp49
 70
     1
102
RTVSPropertyOp50
 70
     1
102
RTVSPropertyOp51
 70
     0
102
RTVSPropertyOp52
 70
     0
102
RTVSPropertyOp53
 70
     1
102
RTVSPropertyOp54
 70
     1
102
RTVSPropertyOp55
 70
     1
102
RTVSPropertyOp56
 70
     1
102
RTVSPropertyOp57
 70
     1
102
RTVSPost2010Prop28
280
     0
102
RTVSPost2010PropOp28
 70
     1
102
RTVSPost2010Prop29
280
     1
102
RTVSPost2010PropOp29
 70
     1
102
RTVSPost2010Prop30
280
     1
102
RTVSPost2010PropOp30
 70
     1
102
RTVSPost2010Prop31
280
     0
102
RTVSPost2010PropOp31
 70
     1
102
RTVSPost2010Prop32
280
     0
102
RTVSPost2010PropOp32
 70
     1
102
RTVSPost2010Prop33
280
     0
102
RTVSPost2010PropOp33
 70
     1
102
RTVSPost2010Prop34
280
     0
102
RTVSPost2010PropOp34
 70
     1
102
RTVSPost2010Prop35
280
     0
102
RTVSPost2010PropOp35
 70
     1
102
RTVSPost2010Prop36
280
     0
102
RTVSPost2010PropOp36
 70
     1
102
RTVSPost2010Prop37
 90
       50
102
RTVSPost2010PropOp37
 70
     1
102
RTVSPost2010Prop38
140
0.0
102
RTVSPost2010PropOp38
 70
     1
102
RTVSPost2010Prop39
140
1.0
102
RTVSPost2010PropOp39
 70
     1
102
RTVSPost2010Prop40
 90
        0
102
RTVSPost2010PropOp40
 70
     1
102
RTVSPost2010Prop41ColorIndex
 90
       18
102
RTVSPost2010Prop41ColorRGB
 90
        0
102
RTVSPost2010PropOp41
 70
     1
102
RTVSPost2010Prop42
 90
       50
102
RTVSPost2010PropOp42
 70
     1
102
RTVSPost2010Prop43
 90
        3
102
RTVSPost2010PropOp43
 70
     1
102
RTVSPost2010Prop44ColorIndex
 90
        5
102
RTVSPost2010Prop44ColorRGB
 90
      255
102
RTVSPost2010PropOp44
 70
     1
102
RTVSPost2010Prop45
280
     0
102
RTVSPost2010PropOp45
 70
     1
102
RTVSPost2010Prop46
 90
       50
102
RTVSPost2010PropOp46
 70
     1
102
RTVSPost2010Prop47
 90
       50
102
RTVSPost2010PropOp47
 70
     1
102
RTVSPost2010Prop48
 90
       50
102
RTVSPost2010PropOp48
 70
     1
102
RTVSPost2010Prop49
280
     0
102
RTVSPost2010PropOp49
 70
     1
102
RTVSPost2010Prop50
 90
       50
102
RTVSPost2010PropOp50
 70
     1
102
RTVSPost2010Prop51ColorIndex
 90
      256
102
RTVSPost2010Prop51ColorRGB
 90
-16777216
102
RTVSPost2010PropOp51
 70
     0
102
RTVSPost2010Prop52
140
1.0
102
RTVSPost2010PropOp52
 70
     0
102
RTVSPost2010Prop53
 90
        2
102
RTVSPost2010PropOp53
 70
     1
102
RTVSPost2010Prop54
  1
strokes_ogs.tif
102
RTVSPost2010PropOp54
 70
     1
102
RTVSPost2010Prop55
280
     0
102
RTVSPost2010PropOp55
 70
     1
102
RTVSPost2010Prop56
140
1.0
102
RTVSPost2010PropOp56
 70
     1
102
RTVSPost2010Prop57
140
1.0
102
RTVSPost2010PropOp57
 70
     1
  0
XRECORD
  5
302
102
{ACAD_REACTORS
330
301
102
}
330
301
100
AcDbXrecord
280
     1
102
RTVSPropertyOp0
 70
     1
102
RTVSPropertyOp1
 70
     1
102
RTVSPropertyOp2
 70
     1
102
RTVSPropertyOp3
 70
     1
102
RTVSPropertyOp4
 70
     1
102
RTVSPropertyOp5
 70
     1
102
RTVSPropertyOp6
 70
     1
102
RTVSPropertyOp7
 70
     1
102
RTVSPropertyOp8
 70
     1
102
RTVSPropertyOp9
 70
     1
102
RTVSPropertyOp10
 70
     1
102
RTVSPropertyOp11
 70
     1
102
RTVSPropertyOp12
 70
     1
102
RTVSPropertyOp13
 70
     1
102
RTVSPropertyOp14
 70
     1
102
RTVSPropertyOp15
 70
     1
102
RTVSPropertyOp16
 70
     1
102
RTVSPropertyOp17
 70
     1
102
RTVSPropertyOp18
 70
     1
102
RTVSPropertyOp19
 70
     1
102
RTVSPropertyOp20
 70
     1
102
RTVSPropertyOp21
 70
     1
102
RTVSPropertyOp22
 70
     1
102
RTVSPropertyOp23
 70
     1
102
RTVSPropertyOp24
 70
     1
102
RTVSPropertyOp25
 70
     1
102
RTVSPropertyOp26
 70
     1
102
RTVSPropertyOp27
 70
     1
102
RTVSPropertyOp28
 70
     1
102
RTVSPropertyOp29
 70
     1
102
RTVSPropertyOp30
 70
     1
102
RTVSPropertyOp31
 70
     1
102
RTVSPropertyOp32
 70
     1
102
RTVSPropertyOp33
 70
     1
102
RTVSPropertyOp34
 70
     1
102
RTVSPropertyOp35
 70
     1
102
RTVSPropertyOp36
 70
     1
102
RTVSPropertyOp37
 70
     1
102
RTVSPropertyOp38
 70
     1
102
RTVSPropertyOp39
 70
     1
102
RTVSPropertyOp40
 70
     1
102
RTVSPropertyOp41
 70
     1
102
RTVSPropertyOp42
 70
     1
102
RTVSPropertyOp43
 70
     1
102
RTVSPropertyOp44
 70
     1
102
RTVSPropertyOp45
 70
     1
102
RTVSPropertyOp46
 70
     1
102
RTVSPropertyOp47
 70
     1
102
RTVSPropertyOp48
 70
     1
102
RTVSPropertyOp49
 70
     1
102
RTVSPropertyOp50
 70
     1
102
RTVSPropertyOp51
 70
     0
102
RTVSPropertyOp52
 70
     0
102
RTVSPropertyOp53
 70
     1
102
RTVSPropertyOp54
 70
     1
102
RTVSPropertyOp55
 70
     1
102
RTVSPropertyOp56
 70
     1
102
RTVSPropertyOp57
 70
     1
102
RTVSPost2010Prop28
280
     0
102
RTVSPost2010PropOp28
 70
     1
102
RTVSPost2010Prop29
280
     1
102
RTVSPost2010PropOp29
 70
     1
102
RTVSPost2010Prop30
280
     1
102
RTVSPost2010PropOp30
 70
     1
102
RTVSPost2010Prop31
280
     0
102
RTVSPost2010PropOp31
 70
     1
102
RTVSPost2010Prop32
280
     0
102
RTVSPost2010PropOp32
 70
     1
102
RTVSPost2010Prop33
280
     0
102
RTVSPost2010PropOp33
 70
     1
102
RTVSPost2010Prop34
280
     0
102
RTVSPost2010PropOp34
 70
     1
102
RTVSPost2010Prop35
280
     0
102
RTVSPost2010PropOp35
 70
     1
102
RTVSPost2010Prop36
280
     0
102
RTVSPost2010PropOp36
 70
     1
102
RTVSPost2010Prop37
 90
       50
102
RTVSPost2010PropOp37
 70
     1
102
RTVSPost2010Prop38
140
0.0
102
RTVSPost2010PropOp38
 70
     1
102
RTVSPost2010Prop39
140
1.0
102
RTVSPost2010PropOp39
 70
     1
102
RTVSPost2010Prop40
 90
        0
102
RTVSPost2010PropOp40
 70
     1
102
RTVSPost2010Prop41ColorIndex
 90
       18
102
RTVSPost2010Prop41ColorRGB
 90
        0
102
RTVSPost2010PropOp41
 70
     1
102
RTVSPost2010Prop42
 90
       50
102
RTVSPost2010PropOp42
 70
     1
102
RTVSPost2010Prop43
 90
        3
102
RTVSPost2010PropOp43
 70
     1
102
RTVSPost2010Prop44ColorIndex
 90
        5
102
RTVSPost2010Prop44ColorRGB
 90
      255
102
RTVSPost2010PropOp44
 70
     1
102
RTVSPost2010Prop45
280
     0
102
RTVSPost2010PropOp45
 70
     1
102
RTVSPost2010Prop46
 90
       50
102
RTVSPost2010PropOp46
 70
     1
102
RTVSPost2010Prop47
 90
       50
102
RTVSPost2010PropOp47
 70
     1
102
RTVSPost2010Prop48
 90
       50
102
RTVSPost2010PropOp48
 70
     1
102
RTVSPost2010Prop49
280
     0
102
RTVSPost2010PropOp49
 70
     1
102
RTVSPost2010Prop50
 90
       50
102
RTVSPost2010PropOp50
 70
     1
102
RTVSPost2010Prop51ColorIndex
 90
      256
102
RTVSPost2010Prop51ColorRGB
 90
-16777216
102
RTVSPost2010PropOp51
 70
     0
102
RTVSPost2010Prop52
140
1.0
102
RTVSPost2010PropOp52
 70
     0
102
RTVSPost2010Prop53
 90
        2
102
RTVSPost2010PropOp53
 70
     1
102
RTVSPost2010Prop54
  1
strokes_ogs.tif
102
RTVSPost2010PropOp54
 70
     1
102
RTVSPost2010Prop55
280
     0
102
RTVSPost2010PropOp55
 70
     1
102
RTVSPost2010Prop56
140
1.0
102
RTVSPost2010PropOp56
 70
     1
102
RTVSPost2010Prop57
140
1.0
102
RTVSPost2010PropOp57
 70
     1
  0
XRECORD
  5
304
102
{ACAD_REACTORS
330
303
102
}
330
303
100
AcDbXrecord
280
     1
102
RTVSPropertyOp0
 70
     1
102
RTVSPropertyOp1
 70
     1
102
RTVSPropertyOp2
 70
     1
102
RTVSPropertyOp3
 70
     1
102
RTVSPropertyOp4
 70
     1
102
RTVSPropertyOp5
 70
     1
102
RTVSPropertyOp6
 70
     1
102
RTVSPropertyOp7
 70
     1
102
RTVSPropertyOp8
 70
     1
102
RTVSPropertyOp9
 70
     1
102
RTVSPropertyOp10
 70
     1
102
RTVSPropertyOp11
 70
     1
102
RTVSPropertyOp12
 70
     1
102
RTVSPropertyOp13
 70
     1
102
RTVSPropertyOp14
 70
     1
102
RTVSPropertyOp15
 70
     1
102
RTVSPropertyOp16
 70
     1
102
RTVSPropertyOp17
 70
     1
102
RTVSPropertyOp18
 70
     1
102
RTVSPropertyOp19
 70
     1
102
RTVSPropertyOp20
 70
     1
102
RTVSPropertyOp21
 70
     1
102
RTVSPropertyOp22
 70
     1
102
RTVSPropertyOp23
 70
     1
102
RTVSPropertyOp24
 70
     1
102
RTVSPropertyOp25
 70
     1
102
RTVSPropertyOp26
 70
     1
102
RTVSPropertyOp27
 70
     1
102
RTVSPropertyOp28
 70
     1
102
RTVSPropertyOp29
 70
     1
102
RTVSPropertyOp30
 70
     1
102
RTVSPropertyOp31
 70
     1
102
RTVSPropertyOp32
 70
     1
102
RTVSPropertyOp33
 70
     1
102
RTVSPropertyOp34
 70
     1
102
RTVSPropertyOp35
 70
     1
102
RTVSPropertyOp36
 70
     1
102
RTVSPropertyOp37
 70
     1
102
RTVSPropertyOp38
 70
     1
102
RTVSPropertyOp39
 70
     1
102
RTVSPropertyOp40
 70
     1
102
RTVSPropertyOp41
 70
     1
102
RTVSPropertyOp42
 70
     1
102
RTVSPropertyOp43
 70
     1
102
RTVSPropertyOp44
 70
     1
102
RTVSPropertyOp45
 70
     1
102
RTVSPropertyOp46
 70
     1
102
RTVSPropertyOp47
 70
     1
102
RTVSPropertyOp48
 70
     1
102
RTVSPropertyOp49
 70
     1
102
RTVSPropertyOp50
 70
     1
102
RTVSPropertyOp51
 70
     0
102
RTVSPropertyOp52
 70
     0
102
RTVSPropertyOp53
 70
     1
102
RTVSPropertyOp54
 70
     1
102
RTVSPropertyOp55
 70
     1
102
RTVSPropertyOp56
 70
     1
102
RTVSPropertyOp57
 70
     1
102
RTVSPost2010Prop28
280
     0
102
RTVSPost2010PropOp28
 70
     1
102
RTVSPost2010Prop29
280
     1
102
RTVSPost2010PropOp29
 70
     1
102
RTVSPost2010Prop30
280
     1
102
RTVSPost2010PropOp30
 70
     1
102
RTVSPost2010Prop31
280
     0
102
RTVSPost2010PropOp31
 70
     1
102
RTVSPost2010Prop32
280
     0
102
RTVSPost2010PropOp32
 70
     1
102
RTVSPost2010Prop33
280
     0
102
RTVSPost2010PropOp33
 70
     1
102
RTVSPost2010Prop34
280
     0
102
RTVSPost2010PropOp34
 70
     1
102
RTVSPost2010Prop35
280
     0
102
RTVSPost2010PropOp35
 70
     1
102
RTVSPost2010Prop36
280
     0
102
RTVSPost2010PropOp36
 70
     1
102
RTVSPost2010Prop37
 90
       50
102
RTVSPost2010PropOp37
 70
     1
102
RTVSPost2010Prop38
140
0.0
102
RTVSPost2010PropOp38
 70
     1
102
RTVSPost2010Prop39
140
1.0
102
RTVSPost2010PropOp39
 70
     1
102
RTVSPost2010Prop40
 90
        0
102
RTVSPost2010PropOp40
 70
     1
102
RTVSPost2010Prop41ColorIndex
 90
       18
102
RTVSPost2010Prop41ColorRGB
 90
        0
102
RTVSPost2010PropOp41
 70
     1
102
RTVSPost2010Prop42
 90
       50
102
RTVSPost2010PropOp42
 70
     1
102
RTVSPost2010Prop43
 90
        3
102
RTVSPost2010PropOp43
 70
     1
102
RTVSPost2010Prop44ColorIndex
 90
        5
102
RTVSPost2010Prop44ColorRGB
 90
      255
102
RTVSPost2010PropOp44
 70
     1
102
RTVSPost2010Prop45
280
     0
102
RTVSPost2010PropOp45
 70
     1
102
RTVSPost2010Prop46
 90
       50
102
RTVSPost2010PropOp46
 70
     1
102
RTVSPost2010Prop47
 90
       50
102
RTVSPost2010PropOp47
 70
     1
102
RTVSPost2010Prop48
 90
       50
102
RTVSPost2010PropOp48
 70
     1
102
RTVSPost2010Prop49
280
     0
102
RTVSPost2010PropOp49
 70
     1
102
RTVSPost2010Prop50
 90
       50
102
RTVSPost2010PropOp50
 70
     1
102
RTVSPost2010Prop51ColorIndex
 90
      256
102
RTVSPost2010Prop51ColorRGB
 90
-16777216
102
RTVSPost2010PropOp51
 70
     0
102
RTVSPost2010Prop52
140
1.0
102
RTVSPost2010PropOp52
 70
     0
102
RTVSPost2010Prop53
 90
        2
102
RTVSPost2010PropOp53
 70
     1
102
RTVSPost2010Prop54
  1
strokes_ogs.tif
102
RTVSPost2010PropOp54
 70
     1
102
RTVSPost2010Prop55
280
     0
102
RTVSPost2010PropOp55
 70
     1
102
RTVSPost2010Prop56
140
1.0
102
RTVSPost2010PropOp56
 70
     1
102
RTVSPost2010Prop57
140
1.0
102
RTVSPost2010PropOp57
 70
     1
  0
XRECORD
  5
2F4
102
{ACAD_REACTORS
330
2F3
102
}
330
2F3
100
AcDbXrecord
280
     1
102
RTVSPropertyOp0
 70
     1
102
RTVSPropertyOp1
 70
     1
102
RTVSPropertyOp2
 70
     1
102
RTVSPropertyOp3
 70
     1
102
RTVSPropertyOp4
 70
     1
102
RTVSPropertyOp5
 70
     1
102
RTVSPropertyOp6
 70
     1
102
RTVSPropertyOp7
 70
     1
102
RTVSPropertyOp8
 70
     1
102
RTVSPropertyOp9
 70
     1
102
RTVSPropertyOp10
 70
     1
102
RTVSPropertyOp11
 70
     1
102
RTVSPropertyOp12
 70
     1
102
RTVSPropertyOp13
 70
     1
102
RTVSPropertyOp14
 70
     1
102
RTVSPropertyOp15
 70
     1
102
RTVSPropertyOp16
 70
     1
102
RTVSPropertyOp17
 70
     1
102
RTVSPropertyOp18
 70
     1
102
RTVSPropertyOp19
 70
     1
102
RTVSPropertyOp20
 70
     1
102
RTVSPropertyOp21
 70
     1
102
RTVSPropertyOp22
 70
     1
102
RTVSPropertyOp23
 70
     1
102
RTVSPropertyOp24
 70
     1
102
RTVSPropertyOp25
 70
     1
102
RTVSPropertyOp26
 70
     1
102
RTVSPropertyOp27
 70
     1
102
RTVSPropertyOp28
 70
     1
102
RTVSPropertyOp29
 70
     1
102
RTVSPropertyOp30
 70
     1
102
RTVSPropertyOp31
 70
     1
102
RTVSPropertyOp32
 70
     1
102
RTVSPropertyOp33
 70
     1
102
RTVSPropertyOp34
 70
     1
102
RTVSPropertyOp35
 70
     1
102
RTVSPropertyOp36
 70
     1
102
RTVSPropertyOp37
 70
     1
102
RTVSPropertyOp38
 70
     1
102
RTVSPropertyOp39
 70
     1
102
RTVSPropertyOp40
 70
     1
102
RTVSPropertyOp41
 70
     1
102
RTVSPropertyOp42
 70
     1
102
RTVSPropertyOp43
 70
     1
102
RTVSPropertyOp44
 70
     1
102
RTVSPropertyOp45
 70
     1
102
RTVSPropertyOp46
 70
     1
102
RTVSPropertyOp47
 70
     1
102
RTVSPropertyOp48
 70
     1
102
RTVSPropertyOp49
 70
     1
102
RTVSPropertyOp50
 70
     1
102
RTVSPropertyOp51
 70
     0
102
RTVSPropertyOp52
 70
     0
102
RTVSPropertyOp53
 70
     1
102
RTVSPropertyOp54
 70
     1
102
RTVSPropertyOp55
 70
     1
102
RTVSPropertyOp56
 70
     1
102
RTVSPropertyOp57
 70
     1
102
RTVSPost2010Prop28
280
     0
102
RTVSPost2010PropOp28
 70
     1
102
RTVSPost2010Prop29
280
     1
102
RTVSPost2010PropOp29
 70
     1
102
RTVSPost2010Prop30
280
     1
102
RTVSPost2010PropOp30
 70
     1
102
RTVSPost2010Prop31
280
     0
102
RTVSPost2010PropOp31
 70
     1
102
RTVSPost2010Prop32
280
     0
102
RTVSPost2010PropOp32
 70
     1
102
RTVSPost2010Prop33
280
     0
102
RTVSPost2010PropOp33
 70
     1
102
RTVSPost2010Prop34
280
     0
102
RTVSPost2010PropOp34
 70
     1
102
RTVSPost2010Prop35
280
     0
102
RTVSPost2010PropOp35
 70
     1
102
RTVSPost2010Prop36
280
     0
102
RTVSPost2010PropOp36
 70
     1
102
RTVSPost2010Prop37
 90
       50
102
RTVSPost2010PropOp37
 70
     1
102
RTVSPost2010Prop38
140
0.0
102
RTVSPost2010PropOp38
 70
     1
102
RTVSPost2010Prop39
140
1.0
102
RTVSPost2010PropOp39
 70
     1
102
RTVSPost2010Prop40
 90
        0
102
RTVSPost2010PropOp40
 70
     1
102
RTVSPost2010Prop41ColorIndex
 90
       18
102
RTVSPost2010Prop41ColorRGB
 90
        0
102
RTVSPost2010PropOp41
 70
     1
102
RTVSPost2010Prop42
 90
       50
102
RTVSPost2010PropOp42
 70
     1
102
RTVSPost2010Prop43
 90
        3
102
RTVSPost2010PropOp43
 70
     1
102
RTVSPost2010Prop44ColorIndex
 90
        5
102
RTVSPost2010Prop44ColorRGB
 90
      255
102
RTVSPost2010PropOp44
 70
     1
102
RTVSPost2010Prop45
280
     0
102
RTVSPost2010PropOp45
 70
     1
102
RTVSPost2010Prop46
 90
       50
102
RTVSPost2010PropOp46
 70
     1
102
RTVSPost2010Prop47
 90
       50
102
RTVSPost2010PropOp47
 70
     1
102
RTVSPost2010Prop48
 90
       50
102
RTVSPost2010PropOp48
 70
     1
102
RTVSPost2010Prop49
280
     0
102
RTVSPost2010PropOp49
 70
     1
102
RTVSPost2010Prop50
 90
       50
102
RTVSPost2010PropOp50
 70
     1
102
RTVSPost2010Prop51ColorIndex
 90
      256
102
RTVSPost2010Prop51ColorRGB
 90
-16777216
102
RTVSPost2010PropOp51
 70
     0
102
RTVSPost2010Prop52
140
1.0
102
RTVSPost2010PropOp52
 70
     0
102
RTVSPost2010Prop53
 90
        2
102
RTVSPost2010PropOp53
 70
     1
102
RTVSPost2010Prop54
  1
strokes_ogs.tif
102
RTVSPost2010PropOp54
 70
     1
102
RTVSPost2010Prop55
280
     0
102
RTVSPost2010PropOp55
 70
     1
102
RTVSPost2010Prop56
140
1.0
102
RTVSPost2010PropOp56
 70
     1
102
RTVSPost2010Prop57
140
1.0
102
RTVSPost2010PropOp57
 70
     1
  0
XRECORD
  5
2E6
102
{ACAD_REACTORS
330
2E5
102
}
330
2E5
100
AcDbXrecord
280
     1
102
RTVSPropertyOp0
 70
     1
102
RTVSPropertyOp1
 70
     1
102
RTVSPropertyOp2
 70
     1
102
RTVSPropertyOp3
 70
     1
102
RTVSPropertyOp4
 70
     1
102
RTVSPropertyOp5
 70
     1
102
RTVSPropertyOp6
 70
     1
102
RTVSPropertyOp7
 70
     1
102
RTVSPropertyOp8
 70
     1
102
RTVSPropertyOp9
 70
     1
102
RTVSPropertyOp10
 70
     1
102
RTVSPropertyOp11
 70
     1
102
RTVSPropertyOp12
 70
     1
102
RTVSPropertyOp13
 70
     1
102
RTVSPropertyOp14
 70
     1
102
RTVSPropertyOp15
 70
     1
102
RTVSPropertyOp16
 70
     1
102
RTVSPropertyOp17
 70
     1
102
RTVSPropertyOp18
 70
     1
102
RTVSPropertyOp19
 70
     1
102
RTVSPropertyOp20
 70
     1
102
RTVSPropertyOp21
 70
     1
102
RTVSPropertyOp22
 70
     1
102
RTVSPropertyOp23
 70
     1
102
RTVSPropertyOp24
 70
     1
102
RTVSPropertyOp25
 70
     1
102
RTVSPropertyOp26
 70
     1
102
RTVSPropertyOp27
 70
     1
102
RTVSPropertyOp28
 70
     1
102
RTVSPropertyOp29
 70
     1
102
RTVSPropertyOp30
 70
     1
102
RTVSPropertyOp31
 70
     1
102
RTVSPropertyOp32
 70
     1
102
RTVSPropertyOp33
 70
     1
102
RTVSPropertyOp34
 70
     1
102
RTVSPropertyOp35
 70
     1
102
RTVSPropertyOp36
 70
     1
102
RTVSPropertyOp37
 70
     1
102
RTVSPropertyOp38
 70
     1
102
RTVSPropertyOp39
 70
     1
102
RTVSPropertyOp40
 70
     1
102
RTVSPropertyOp41
 70
     1
102
RTVSPropertyOp42
 70
     1
102
RTVSPropertyOp43
 70
     1
102
RTVSPropertyOp44
 70
     1
102
RTVSPropertyOp45
 70
     1
102
RTVSPropertyOp46
 70
     1
102
RTVSPropertyOp47
 70
     1
102
RTVSPropertyOp48
 70
     1
102
RTVSPropertyOp49
 70
     1
102
RTVSPropertyOp50
 70
     1
102
RTVSPropertyOp51
 70
     0
102
RTVSPropertyOp52
 70
     0
102
RTVSPropertyOp53
 70
     1
102
RTVSPropertyOp54
 70
     1
102
RTVSPropertyOp55
 70
     1
102
RTVSPropertyOp56
 70
     1
102
RTVSPropertyOp57
 70
     1
102
RTVSPost2010Prop28
280
     0
102
RTVSPost2010PropOp28
 70
     1
102
RTVSPost2010Prop29
280
     1
102
RTVSPost2010PropOp29
 70
     1
102
RTVSPost2010Prop30
280
     1
102
RTVSPost2010PropOp30
 70
     1
102
RTVSPost2010Prop31
280
     0
102
RTVSPost2010PropOp31
 70
     1
102
RTVSPost2010Prop32
280
     0
102
RTVSPost2010PropOp32
 70
     1
102
RTVSPost2010Prop33
280
     0
102
RTVSPost2010PropOp33
 70
     1
102
RTVSPost2010Prop34
280
     0
102
RTVSPost2010PropOp34
 70
     1
102
RTVSPost2010Prop35
280
     0
102
RTVSPost2010PropOp35
 70
     1
102
RTVSPost2010Prop36
280
     0
102
RTVSPost2010PropOp36
 70
     1
102
RTVSPost2010Prop37
 90
       50
102
RTVSPost2010PropOp37
 70
     1
102
RTVSPost2010Prop38
140
0.0
102
RTVSPost2010PropOp38
 70
     1
102
RTVSPost2010Prop39
140
1.0
102
RTVSPost2010PropOp39
 70
     1
102
RTVSPost2010Prop40
 90
        0
102
RTVSPost2010PropOp40
 70
     1
102
RTVSPost2010Prop41ColorIndex
 90
       18
102
RTVSPost2010Prop41ColorRGB
 90
        0
102
RTVSPost2010PropOp41
 70
     1
102
RTVSPost2010Prop42
 90
       50
102
RTVSPost2010PropOp42
 70
     1
102
RTVSPost2010Prop43
 90
        3
102
RTVSPost2010PropOp43
 70
     1
102
RTVSPost2010Prop44ColorIndex
 90
        5
102
RTVSPost2010Prop44ColorRGB
 90
      255
102
RTVSPost2010PropOp44
 70
     1
102
RTVSPost2010Prop45
280
     0
102
RTVSPost2010PropOp45
 70
     1
102
RTVSPost2010Prop46
 90
       50
102
RTVSPost2010PropOp46
 70
     1
102
RTVSPost2010Prop47
 90
       50
102
RTVSPost2010PropOp47
 70
     1
102
RTVSPost2010Prop48
 90
       50
102
RTVSPost2010PropOp48
 70
     1
102
RTVSPost2010Prop49
280
     0
102
RTVSPost2010PropOp49
 70
     1
102
RTVSPost2010Prop50
 90
       50
102
RTVSPost2010PropOp50
 70
     1
102
RTVSPost2010Prop51ColorIndex
 90
      256
102
RTVSPost2010Prop51ColorRGB
 90
-16777216
102
RTVSPost2010PropOp51
 70
     0
102
RTVSPost2010Prop52
140
1.0
102
RTVSPost2010PropOp52
 70
     0
102
RTVSPost2010Prop53
 90
        2
102
RTVSPost2010PropOp53
 70
     1
102
RTVSPost2010Prop54
  1
strokes_ogs.tif
102
RTVSPost2010PropOp54
 70
     1
102
RTVSPost2010Prop55
280
     0
102
RTVSPost2010PropOp55
 70
     1
102
RTVSPost2010Prop56
140
1.0
102
RTVSPost2010PropOp56
 70
     1
102
RTVSPost2010Prop57
140
1.0
102
RTVSPost2010PropOp57
 70
     1
  0
XRECORD
  5
306
102
{ACAD_REACTORS
330
305
102
}
330
305
100
AcDbXrecord
280
     1
102
RTVSPropertyOp0
 70
     1
102
RTVSPropertyOp1
 70
     1
102
RTVSPropertyOp2
 70
     1
102
RTVSPropertyOp3
 70
     1
102
RTVSPropertyOp4
 70
     1
102
RTVSPropertyOp5
 70
     1
102
RTVSPropertyOp6
 70
     1
102
RTVSPropertyOp7
 70
     1
102
RTVSPropertyOp8
 70
     1
102
RTVSPropertyOp9
 70
     1
102
RTVSPropertyOp10
 70
     1
102
RTVSPropertyOp11
 70
     1
102
RTVSPropertyOp12
 70
     1
102
RTVSPropertyOp13
 70
     1
102
RTVSPropertyOp14
 70
     1
102
RTVSPropertyOp15
 70
     1
102
RTVSPropertyOp16
 70
     1
102
RTVSPropertyOp17
 70
     1
102
RTVSPropertyOp18
 70
     1
102
RTVSPropertyOp19
 70
     1
102
RTVSPropertyOp20
 70
     1
102
RTVSPropertyOp21
 70
     1
102
RTVSPropertyOp22
 70
     1
102
RTVSPropertyOp23
 70
     1
102
RTVSPropertyOp24
 70
     1
102
RTVSPropertyOp25
 70
     1
102
RTVSPropertyOp26
 70
     1
102
RTVSPropertyOp27
 70
     1
102
RTVSPropertyOp28
 70
     1
102
RTVSPropertyOp29
 70
     1
102
RTVSPropertyOp30
 70
     1
102
RTVSPropertyOp31
 70
     1
102
RTVSPropertyOp32
 70
     1
102
RTVSPropertyOp33
 70
     1
102
RTVSPropertyOp34
 70
     1
102
RTVSPropertyOp35
 70
     1
102
RTVSPropertyOp36
 70
     1
102
RTVSPropertyOp37
 70
     1
102
RTVSPropertyOp38
 70
     1
102
RTVSPropertyOp39
 70
     1
102
RTVSPropertyOp40
 70
     1
102
RTVSPropertyOp41
 70
     1
102
RTVSPropertyOp42
 70
     1
102
RTVSPropertyOp43
 70
     1
102
RTVSPropertyOp44
 70
     1
102
RTVSPropertyOp45
 70
     1
102
RTVSPropertyOp46
 70
     1
102
RTVSPropertyOp47
 70
     1
102
RTVSPropertyOp48
 70
     1
102
RTVSPropertyOp49
 70
     1
102
RTVSPropertyOp50
 70
     1
102
RTVSPropertyOp51
 70
     0
102
RTVSPropertyOp52
 70
     0
102
RTVSPropertyOp53
 70
     1
102
RTVSPropertyOp54
 70
     1
102
RTVSPropertyOp55
 70
     1
102
RTVSPropertyOp56
 70
     1
102
RTVSPropertyOp57
 70
     1
102
RTVSPost2010Prop28
280
     0
102
RTVSPost2010PropOp28
 70
     1
102
RTVSPost2010Prop29
280
     1
102
RTVSPost2010PropOp29
 70
     1
102
RTVSPost2010Prop30
280
     1
102
RTVSPost2010PropOp30
 70
     1
102
RTVSPost2010Prop31
280
     0
102
RTVSPost2010PropOp31
 70
     1
102
RTVSPost2010Prop32
280
     0
102
RTVSPost2010PropOp32
 70
     1
102
RTVSPost2010Prop33
280
     0
102
RTVSPost2010PropOp33
 70
     1
102
RTVSPost2010Prop34
280
     0
102
RTVSPost2010PropOp34
 70
     1
102
RTVSPost2010Prop35
280
     0
102
RTVSPost2010PropOp35
 70
     1
102
RTVSPost2010Prop36
280
     0
102
RTVSPost2010PropOp36
 70
     1
102
RTVSPost2010Prop37
 90
       50
102
RTVSPost2010PropOp37
 70
     1
102
RTVSPost2010Prop38
140
0.0
102
RTVSPost2010PropOp38
 70
     1
102
RTVSPost2010Prop39
140
1.0
102
RTVSPost2010PropOp39
 70
     1
102
RTVSPost2010Prop40
 90
        0
102
RTVSPost2010PropOp40
 70
     1
102
RTVSPost2010Prop41ColorIndex
 90
       18
102
RTVSPost2010Prop41ColorRGB
 90
        0
102
RTVSPost2010PropOp41
 70
     1
102
RTVSPost2010Prop42
 90
       50
102
RTVSPost2010PropOp42
 70
     1
102
RTVSPost2010Prop43
 90
        3
102
RTVSPost2010PropOp43
 70
     1
102
RTVSPost2010Prop44ColorIndex
 90
        5
102
RTVSPost2010Prop44ColorRGB
 90
      255
102
RTVSPost2010PropOp44
 70
     1
102
RTVSPost2010Prop45
280
     0
102
RTVSPost2010PropOp45
 70
     1
102
RTVSPost2010Prop46
 90
       50
102
RTVSPost2010PropOp46
 70
     1
102
RTVSPost2010Prop47
 90
       50
102
RTVSPost2010PropOp47
 70
     1
102
RTVSPost2010Prop48
 90
       50
102
RTVSPost2010PropOp48
 70
     1
102
RTVSPost2010Prop49
280
     0
102
RTVSPost2010PropOp49
 70
     1
102
RTVSPost2010Prop50
 90
       50
102
RTVSPost2010PropOp50
 70
     1
102
RTVSPost2010Prop51ColorIndex
 90
      256
102
RTVSPost2010Prop51ColorRGB
 90
-16777216
102
RTVSPost2010PropOp51
 70
     0
102
RTVSPost2010Prop52
140
1.0
102
RTVSPost2010PropOp52
 70
     0
102
RTVSPost2010Prop53
 90
        2
102
RTVSPost2010PropOp53
 70
     1
102
RTVSPost2010Prop54
  1
strokes_ogs.tif
102
RTVSPost2010PropOp54
 70
     1
102
RTVSPost2010Prop55
280
     0
102
RTVSPost2010PropOp55
 70
     1
102
RTVSPost2010Prop56
140
1.0
102
RTVSPost2010PropOp56
 70
     1
102
RTVSPost2010Prop57
140
1.0
102
RTVSPost2010PropOp57
 70
     1
  0
ENDSEC
  0
EOF
